PrimaNota.ru - самый крупный в мире бесплатный архив песенных текстов, аккордов, табулатур и нот


Papa Roach - State Of Emergency - текст песни, таба, видео

Регистрация Запомнить меня
Войти через:  Facebook Google Twitter Vk Yandex Mail.ru

Papa Roach - State Of Emergency - текст песни, таба, видео

Печатать
Просмотров: 551
Уроки эстрадного вокала в Санкт-Петербурге
Авторы: James Michael, Jacoby Shaddix, Tobin Esperance

Kay so this is my first attempt. 
Tuning: Drop D
b=bend


Intro/Verse
E|-----------------------------------|------------------------------------|
B|-----------------------------------|------------------------------------|
G|--7--9---7--9-------7--9---7--9----|--7--9---12(b)--9----------7--9----7|
D|-------------(0)-------------------|---------------------------------9--|
A|-------------------------------(0)-|------------------------------------|
D|-----------------------------------|------------------------------------|    REPEAT x4

Chorus
E|----------------------------------|-------------------------------------|
B|----------------------------------|-------------------------------------|
G|--x8---x4---x4-------x8---x4---x4-|--x8---x4---x4----------x8---x8------|
D|2----5----7--------2----5----0----|2----5----7-----------0----1---------|
A|2----5----7--------2----5----0----|2----5----7-----------0----1---------|
D|2----5----7--------2----5----0----|2----5----7-----------0----1---------|    REPEAT x2

Bridge
E|--14-15-14-----12------------------|------------------------------------|
B|-------------------12--------------|---15-13-12-13-15-------------------|
G|-----------------------------------|------------------------------------|
D|-----------------------------------|------------------------------------|
A|-----------------------------------|------------------------------------|
D|-----------------------------------|------------------------------------|



ORDER:
Intro/Verse
Chorus
Verse
Chorus
Bridge
Verse
Chrous

Добавлено: 26.05.2012
Другие материалы по этой песне:

Страница создана 26.05.2012
http://primanota.ru/papa-roach/state-of-emergency-chords.htm
Привет, Гость.
Предлагаем пройти революционный курс по гитаре.
Подарок от PrimaNota.Ru, забирай!