PrimaNota.ru - самый крупный в мире бесплатный архив песенных текстов, аккордов, табулатур и нот


Papa Roach - Skeletons - таба, видео

Регистрация Запомнить меня
Войти через:  Facebook Google Twitter Vk Yandex Mail.ru

Papa Roach - Skeletons - таба, видео

Печатать
Просмотров: 275
Papa Roach
Skeletons (F.E.A.R., 2015)
Tuning: Drop C (CGCFAD)

My cover of this song, which the tab is based off, can be watched here:
http://youtu.be/JO0dbzq2ZWg

Intro:

D|-----
A|-----
F|-----
C|\\12-
G|\\12-
C|\\12-

D|---------------------|
A|---------------------|
F|---------------------|
C|-----x-x-5-7-7-5-----|
G|-0-0-x-x---------8-5-|
C|-0-0-x-x-------------|  (x4)

D|-------------------|
A|-------------------|
F|-------------------|
C|-------5-7-7-5-----|
G|-8-8\----------8-5-|
C|-8-8\--------------|  (x3)

D|-------------------|
A|-------------------|
F|-------------------|
C|-----------3-------|
G|-8-8\--------------|
C|-8-8\--3-3---3-3---|


Verse 1:

D|-------------------------------------------------------------------------|
A|-------------------------------------------------------------------------|
F|-------------------------------------------------------------------------|
C|-0-0-----0-0-----0-0----x-0-0-----8-8-----8-8-----8-8----x-8-8-----3-----|
G|-0-0-----0-0-----0-0----x-0-0-----8-8-----8-8-----8-8----x-8-8-----------|
C|-0-0-----0-0-----0-0----x-0-0-----8-8-----8-8-----8-8----x-8-8-3-3---3-3-| (x2)


Prechorus:

D|---------------------|
A|---------------------|
F|---------------------|
C|---------------------|
G|---------------------|
C|-5-5-3-3-5-5-3-3-6b7-|


Chorus:

D|-------------------------------------------------------------------------------------|
A|-------------------------------------------------------------------------------------|
F|-------------------------------------------------------------------------------------|
C|-8--8--8-8--8-8-8-8-10--10--10-10--10-10-10-10-0--0--0-0--0-0-0-0-3--3--3-3--3-3-3-3-|
G|-8--8--8-8--8-8-8-8-10--10--10-10--10-10-10-10-0--0--0-0--0-0-0-0-3--3--3-3--3-3-3-3-|
C|-8--8--8-8--8-8-8-8-10--10--10-10--10-10-10-10-0--0--0-0--0-0-0-0-3--3--3-3--3-3-3-3-|

D|-----------------------------------------------------------------------------------|
A|-----------------------------------------------------------------------------------|
F|-----------------------------------------------------------------------------------|
C|-5--5--5-5--5-5-5-5-7--7--7-7--7-7-7-7-------x-x-x-----------------x-x-x-----x-x-x-|
G|-5--5--5-5--5-5-5-5-7--7--7-7--7-7-7-7--\5-0-x-x-x-------8-8-8-0-0-x-x-x-0-0-x-x-x-|
C|-5--5--5-5--5-5-5-5-7--7--7-7--7-7-7-7-----0-x-x-x-0-0-0-------0-0-x-x-x-0-0-x-x-x-|

D|-------------------------------------------------------------------------------------|
A|-------------------------------------------------------------------------------------|
F|-------------------------------------------------------------------------------------|
C|-8--8--8-8--8-8-8-8-10--10--10-10--10-10-10-10-0--0--0-0--0-0-0-0-3--3--3-3--3-3-3-3-|
G|-8--8--8-8--8-8-8-8-10--10--10-10--10-10-10-10-0--0--0-0--0-0-0-0-3--3--3-3--3-3-3-3-|
C|-8--8--8-8--8-8-8-8-10--10--10-10--10-10-10-10-0--0--0-0--0-0-0-0-3--3--3-3--3-3-3-3-|

D|---------------------------------------|
A|---------------------------------------|
F|---------------------------------------|
C|-5--5--5-5--5-5-5-5-7--7--7-7--7-7-7-7-|
G|-5--5--5-5--5-5-5-5-7--7--7-7--7-7-7-7-|
C|-5--5--5-5--5-5-5-5-7--7--7-7--7-7-7-7-|

Postchorus: Play first intro riff 4 times

Verse 2:

D|------------------------------------------------------------------------|
A|------------------------------------------------------------------------|
F|------------------------------------------------------------------------|
C|-0-0-----0-0-----0-0----x-0-0-----8-8-----x-8-8-----8-8----x------------|
G|-0-0-----0-0-----0-0----x-0-0-----8-8-----x-8-8-----8-8----x-5-3-5-8----|
C|-0-0-----0-0-----0-0----x-0-0-----8-8-----x-8-8-----8-8----x--------3-3-|

D|---------------------------------------------------------------------------------|
A|---------------------------------------------------------------------------------|
F|---------------------------------------------------------------------------------|
C|-0-0-----0-0-----0-0----x-0-0-----------8-8-----x-8-8-----8-8----x-8-8-----3-----|
G|-0-0-----0-0-----0-0----x-0-0-----5-3-5-8-8-----x-8-8-----8-8----x-8-8-----------|
C|-0-0-----0-0-----0-0----x-0-0-0-0-------8-8-----x-8-8-----8-8----x-8-8-3-3---3-3-|


Prechorus

Chorus


Bridge:

D|---|
A|---|
F|---|
C|---|
G|-5-| (x14) (with flanger)
C|---|

D|-------------------------------------------------------------------------------|
A|-------------------------------------------------------------------------------|
F|-------------------------------------------------------------------------------|
C|-----------x-x-----------------------------------x-x-------------x-8-8\-x-5-5\-|
G|-----------x-x-----------------------------------x-x-------8-8-8-x-8-8\-x-5-5\-|
C|-6-5-3-0-0-x-x-5-3-0-0-3-5-3-6-3-5-3-5-3-6-3-0-0-x-x-0-0-0-------x-8-8\-x-5-5\-|

D|----------------------------------------------------------------------------------|
A|----------------------------------------------------------------------------------|
F|----------------------------------------------------------------------------------|
C|-----x-x-----------------------------------x-x-------------x-8-8-\------------0-0-|
G|-----x-x---------------------------5b6-----x-x-------8-8-8-x-8-8-\-3-5-6-3-5--0-0-|
C|-0-0-x-x-5-3-0-0-3-5-3-6-3-5-3-5-3-----0-0-x-x-0-0-0-------x-8-8-\------------0-0-|
                                                                  PM . . . . .


Final prechorus:

D|---------------------|
A|---------------------|
F|---------------------|
C|-----x-x-5-7-7-5-----|
G|-0-0-x-x---------8-5-|
C|-0-0-x-x-------------|


Chorus


Outro:

D|---------------------|
A|---------------------|
F|---------------------|
C|-----x-x-5-7-7-5-----|
G|-0-0-x-x---------8-5-|
C|-0-0-x-x-------------|  (x3)

D|---------------|
A|---------------|
F|---------------|
C|-x-8-8\-x-5-5\-|
G|-x-8-8\-x-5-5\-|
C|-x-8-8\-x-5-5\-|
Добавлено: 05.05.2015
Другие материалы по этой песне:
  • Аккорды и текст

Страница создана 05.05.2015
http://primanota.ru/papa-roach/skeletons-chords.htm
Привет, Гость.
Предлагаем пройти революционный курс по гитаре.
Подарок от PrimaNota.Ru, забирай!