PrimaNota.ru - самый крупный в мире бесплатный архив песенных текстов, аккордов, табулатур и нот


Papa Roach - Singular Indestructable Droid - аккорды и текст, видео

Регистрация Запомнить меня
Войти через:  Facebook Google Twitter Vk Yandex Mail.ru

Papa Roach - Singular Indestructable Droid - аккорды и текст, видео

Печатать
Просмотров: 139
Singular Indestructable Droid
Papa Roach
Intro (0:17)
---------------------------------5-5-5-5-5-5-5-5-5-5-5-5-5-4-4---
-2-2-2-2-2-2-2-2-2-2-2-2-2-5-5-5-------------------------------5-
-----------------------------------------------------------------
-----------------------------------------------------------------
 
-----------------------------------------------------------------
-2-2-2-2-2-2-2-2-2-2-2-2-2-5-5-5---------------------------------
---------------------------------3-3-3-3-3-3-3-3-3-3-3-3-3-2-2---
---------------------------------------------------------------5- } x2

Pre-Verse/Chorus
----------------------------------------------
----------------------------------------------
----------------------------------------------
-0-2--5-2--5-4-0-7-4-5--0-2--5-2--5-4-0-7-5/9-

----------------------------------------
----------------------------------------
----------------------------------------
-0-2--5-2--5-4-0-7-4-5--0-2--5-2--0-2-2-

Verse
--------------------------------------------------------------------------------
----------------------------------------------------------------5-5-5-5-3-3-3-3-
--------------------------------------------------------------------------------
-0-2--0-2-2--0-2-0-5-5--4-5-5--4-5-4-2-0-2--0-2-2--0-2-0-3-3--3-----------------

---------------------------------------------------------------------------
---------------------------------------------------------------------3---5-
---------------------------------------------------------------------------
-0-2--0-2-2--0-2-0-5-5--4-5-5--4-5-4-2-0-2--0-2-2--0-2-0-3-3--3--3-3---3---

Pre-Chorus } x2
------------------------
------------------------
------------------------
-7---7-9---9-10---10-12-

Chorus
Repeat Verse
Repeat Pre-chorus
Repeat Chorus } 2x

Bridge (2:49)
-------------------------------------
-------------------------------------
-------------------------------------
-0-2-0-5--0--9---------0-2-0-5--0--3- } x2

---------------------
---------------------
---------------------
-0-2--0-2--0-2--0-2--

Chorus } x2
----------------------------------------
----------------------------------------
----------------------------------------
-0-2--0-2--0-2--0-2--0-2--0-2--0-2--0-2-
Добавлено: 23.01.2014
Другие материалы по этой песне:
  • Аккорды и текст

Страница создана 22.04.2012
http://primanota.ru/papa-roach/singular-indestructable-droid-chords.htm
Привет, Гость.
Предлагаем пройти революционный курс по гитаре.
Подарок от PrimaNota.Ru, забирай!