PrimaNota.ru - самый крупный в мире бесплатный архив песенных текстов, аккордов, табулатур и нот


Papa Roach - Old Friends From Young Years - таба, видео

Регистрация Запомнить меня
Войти через:  Facebook Google Twitter Vk Yandex Mail.ru

Papa Roach - Old Friends From Young Years - таба, видео

Печатать
Просмотров: 231
Уроки эстрадного вокала в Санкт-Петербурге
Band- Papa Roach
Album- Old Friends From Young Years

This is Papa Roach's first ever full length album.Infest was not Papa Roach's first album!

Tracks:
1.Intro
2.Orange Drive Palms
3.Liquid Diet
4.Grrbrr
5.Isedufukndie
6.Dirtycutfreak
7.Living Room
8.829
9.Peewagon
10.Hedake
11.Shut Up N Die
12.Thanx
13.Untitled Track

--------------------------------------------

1.INTRO

Don't Know

2.ORANGE DRIVE PALMS

INTRO (CLEAN)
E]----------------------------------------------|
B]----------------------------------------------|
G]----------------------------------------------|
D]-------5-4---4-4----------5-4---4-4-----------|
A]-2-2-2-------2-2----2-2-2-----2-2-2-----------|
D]----------------------------------------------|
PM------ ----- ---------------------------------|
E]----------------------------------------------|
B]----------------------------------------------|
G]----------------------------------------------|
D]-------5-4---4-4----------5-4---4-4-----------|
A]-2-2-2-|---2-2-2----2-2-2-------2-2-----------|
D]-------|--------------------------------------|
PM------ | - -----------------------------------|
|
There's a| variation with
this note(the five) you can hear it two times instead of one, but I'm not sure if it's a
real variation or a mistake of Jerry, It
Добавлено: 06.02.2014
Другие материалы по этой песне:
  • Аккорды и текст

Страница создана 06.02.2014
http://primanota.ru/papa-roach/old-friends-from-young-years-chords.htm
Привет, Гость.
Предлагаем пройти революционный курс по гитаре.
Подарок от PrimaNota.Ru, забирай!