PrimaNota.ru - самый крупный в мире бесплатный архив песенных текстов, аккордов, табулатур и нот


Papa Roach - Not Listening - аккорды и текст, таба, бас-таба, видео

Регистрация Запомнить меня
Войти через:  Facebook Google Twitter Vk Yandex Mail.ru

Papa Roach - Not Listening - аккорды и текст, таба, бас-таба, видео

Печатать
Просмотров: 793
Авторы музыки: Tobin Esperance
Авторы текста: Jacoby Shaddix
Not Listening
Papa Roach
Drop D tunning
 
* = Palm mute
~ = let ring

INTRO

|---------------------|           |------------------|
|---------------------|           |------------------|
|---------------------|           |------------------|
|-----6p4---6p4--4h6--|x 3  |-----6p4-----6----| 4th time
|---6-----6-----------|          |---6-----666---6--|
|---------------------|           |------------------|
    *     *                           *     *** * *

Repeat INTRO x 2


0:11 seg
|----------------------------------------------------------------|
|----------------------------------------------------------------|
|-8--8-8-8-8-8-8----------------4--4-4-4-4-4-4--3--3-3-----------|
|-8--8-8-8-8-8-8--6--6-6-6-6-6--4--4-4-4-4-4-4--3--3-3--1-4-0----|
|-6--6-6-6-6-6-6--6--6-6-6-6-6--2--2-2-2-2-2-2--1--1-1--1-4-0----|
|-6--6-6-6-6-6-6--6--6-6-6-6-6--2--2-2-2-2-2-2--1--1-1--1-4-0----|

|----------------------------------------------------------------|
|----------------------------------------------------------------|
|-8--8-8-8-8-8-8----------------4--4-4-4-4-4-4--3~---------------|
|-8--8-8-8-8-8-8--6--6-6-6-6-6--4--4-4-4-4-4-4--3~-----4~--------|
|-6--6-6-6-6-6-6--6--6-6-6-6-6--2--2-2-2-2-2-2--1~-----4~--------|
|-6--6-6-6-6-6-6--6--6-6-6-6-6--2--2-2-2-2-2-2--1~-----4~--------|


1st Verse 

0:23 seg
|---------------------|     |------------------|
|---------------------|     |------------------|
|---------------------|     |------------------|
|-----6p4---6p4--4h6--|x 3  |-----6p4-----6----| 4th time
|---6-----6-----------|     |---6-----666---6--|
|---------------------|     |------------------|
    *     *                     *     *** * *

|----------------------------------------------|
|----------------------------------------------|
|----------------------------------------------|
|-----6p4---6p4--4h6-------6p4-----6~----------| 
|---6-----6--------------6-----666-------------|
|----------------------------------------------|
    *     *              *     *** 

|----------------------------------------------|
|----------------------------------------------|
|----------------------------------------------|
|-----6p4---6p4--4h6-------6p4---6-4-----------| 
|---6-----6--------------6-----6---------------|
|----------------------------------------------|
    *     *              *     * * *

|----------------------------------------------|
|----------------------------------------------|
|----------------------------------------------|
|-----6p4---6p4--4h6-------6p4-----6~----------| 
|---6-----6--------------6-----666-------------|
|----------------------------------------------|
    *     *              *     *** 

|----------------------------------------------|
|----------------------------------------------|
|----------------------------------------------|
|-----6p4---6p4--4h6-------6p4---6p4--4h6------| 
|---6-----6--------------6-----6---------------|
|----------------------------------------------|
    *     *              *     *

0:41 seg
|--------------------------------------------------------------|
|--------------------------------------------------------------|
|--------------------------------------------------------------| 
|-8-8-8-8/4-4--9-9-9-9/4-4--8-8-8-8/4-4-4-4/6-6-6-6/4-4--------| 
|--------------------------------------------------------------|
|--------------------------------------------------------------|   
        No I'm not a failure........


Chorus: 

0:47 seg

|------------------------------------------------------------------|
|------------------------------------------------------------------|
|-8--8-8-8-8-8-8--6--6-6-6-6-6--4--4-4-4-4-4-4---------------------|
|-8--8-8-8-8-8-8--6--6-6-6-6-6--4--4-4-4-4-4-4--4--4-4-4--1-4-0----|
|-6--6-6-6-6-6-6--4--4-4-4-4-4--2--2-2-2-2-2-2--4--4-4-4--1-4-0----|
|-6--6-6-6-6-6-6--4--4-4-4-4-4--2--2-2-2-2-2-2--4--4-4-4--1-4-0----|

|------------------------------------------------------------------|
|------------------------------------------------------------------|
|-8--8-8-8-8-8-8--6--6-6-6-6-6--3--3-3-3-3-3/4--4-4-4-4-4-4--------|
|-8--8-8-8-8-8-8--6--6-6-6-6-6--3--3-3-3-3-3/4--4-4-4-4-4-4--------|
|-6--6-6-6-6-6-6--4--4-4-4-4-4--1--1-1-1-1-1/2--2-2-2-2-2-2--------|
|-6--6-6-6-6-6-6--4--4-4-4-4-4--1--1-1-1-1-1/2--2-2-2-2-2-2--------|

|-----------------------------------|
|-----------------------------------|
|-------------4~--------------------|
|-1-1--4-3~---4~----4~----1~--------|
|-1-1-------4-2~----4~----1~--------|
|-1-1---------2~----4~----1~--------| end 1st chorus


2nd Verse 

1:04 seg
|---------------------|     |------------------|
|---------------------|     |------------------|
|---------------------|     |------------------|
|-----6p4---6p4--4h6--|x 3  |-----6p4-----6----| 4th time
|---6-----6-----------|     |---6-----666---6--|
|---------------------|     |------------------|
    *     *                     *     *** * *

|----------------------------------------------|
|----------------------------------------------|
|----------------------------------------------|
|-----6p4---6p4--4h6-------6p4-----6~----------| 
|---6-----6--------------6-----666-------------|
|----------------------------------------------|
    *     *              *     *** 

|----------------------------------------------|
|----------------------------------------------|
|----------------------------------------------|
|-----6p4---6p4--4h6-------6p4---6p4--4h6------| 
|---6-----6--------------6-----6---------------|
|----------------------------------------------|
    *     *              *     *

1:16 seg
|--------------------------------------------------------------|
|--------------------------------------------------------------|
|--------------------------------------------------------------| 
|-8-8-8-8/4-4--9-9-9-9/4-4--8-8-8-8/4-4-4-4/6-6-6-6/4-4--------| 
|--------------------------------------------------------------|
|--------------------------------------------------------------|   
        I won't get in line........


|---------------------|     |------------------|
|---------------------|     |------------------|
|---------------------|     |------------------|
|-----6p4---6p4--4h6--|x 3  |-----6p4-----6----| 4th time
|---6-----6-----------|     |---6-----666---6--|
|---------------------|     |------------------|
    *     *                     *     *** * *

|----------------------------------------------|
|----------------------------------------------|
|----------------------------------------------|
|-----6p4---6p4--4h6-------6p4-----6~----------| 
|---6-----6--------------6-----666-------------|
|----------------------------------------------|
    *     *              *     *** 

|----------------------------------------------|
|----------------------------------------------|
|----------------------------------------------|
|-----6p4---6p4--4h6-------6p4---6p4--4h6------| 
|---6-----6--------------6-----6---------------|
|----------------------------------------------|
    *     *              *     *

1:33 seg
|--------------------------------------------------------------|
|--------------------------------------------------------------|
|--------------------------------------------------------------| 
|-8-8-8-8/4-4--9-9-9-9/4-4--8-8-8-8/4-4-4-4/6-6-6-6/4-4--------| 
|--------------------------------------------------------------|
|--------------------------------------------------------------|   
        No I'm not a failure........



Chorus: 

1:39 seg
|------------------------------------------------------------------|
|------------------------------------------------------------------|
|-8--8-8-8-8-8-8--6--6-6-6-6-6--4--4-4-4-4-4-4---------------------|
|-8--8-8-8-8-8-8--6--6-6-6-6-6--4--4-4-4-4-4-4--4--4-4-4--1-4-0----|
|-6--6-6-6-6-6-6--4--4-4-4-4-4--2--2-2-2-2-2-2--4--4-4-4--1-4-0----|
|-6--6-6-6-6-6-6--4--4-4-4-4-4--2--2-2-2-2-2-2--4--4-4-4--1-4-0----|

|------------------------------------------------------------------|
|------------------------------------------------------------------|
|-8--8-8-8-8-8-8--6--6-6-6-6-6--3--3-3-3-3-3/4--4-4-4-4-4-4--------|
|-8--8-8-8-8-8-8--6--6-6-6-6-6--3--3-3-3-3-3/4--4-4-4-4-4-4--------|
|-6--6-6-6-6-6-6--4--4-4-4-4-4--1--1-1-1-1-1/2--2-2-2-2-2-2--------|
|-6--6-6-6-6-6-6--4--4-4-4-4-4--1--1-1-1-1-1/2--2-2-2-2-2-2--------|


Bridge:
1:51 seg
|----------------------------------------|
|----------------------------------------|
|-88888888-66666666-44444444-------------|
|-88888888-66666666-44444444-44444444----|
|-66666666-44444444-22222222-44444444----|
|-66666666-44444444-22222222-44444444----|

Told you before....

|----------------------------------------|
|----------------------------------------|
|-88888888-66666666-33333333-44444444----|
|-88888888-66666666-33333333-44444444----|
|-66666666-44444444-11111111-22222222----|
|-66666666-44444444-11111111-22222222----|


2:03 seg
|--------------------------------|
|--------------------------------|
|-------------4-4-4--------------|
|-1-1--4-3~---4-4-4--4-3---------|
|-1-1-------4-2-2-2-----4~-------|
|-1-1---------2-2-2--------------|

|--------------------------------|
|--------------------------------|
|-------------4-4-4--------------|
|-1-1--4-3~---4-4-4--6-6-6/4-----|
|-1-1-------4-2-2-2--------------|
|-1-1---------2-2-2--------------|

|--------------------------------|
|--------------------------------|
|-------------6-0-6-0-6/8--------|
|-1-1--4-3~---6-0-6-0-6/8--------|
|-1-1-------4-4-0-4-0-4/6--------|
|-1-1---------4-0-4-0-4/6--------|  

|--------------------------------|
|--------------------------------|
|-------------4-4-4--------------|
|-1-1--4-3~---4-4-4--6-6-6/4-----|
|-1-1-------4-2-2-2--------------|
|-1-1---------2-2-2--------------|



2:15 
|------------------------------------------------------------------------------|
|------------------------------------------------------------------------------|
|-15-15-15-15-15-15-15-15-15-15-15-15------------------------------------------|
|-x--x--x--x--x--x--x--x--x--x--x--x----9--9-9-9-9-9-9/11--11-11-11-11-11-11---| x 2
|-13-13-13-13-13-13-13-13-13-13-13-13---9--9-9-9-9-9-9/11--11-11-11-11-11-11---|
|---------------------------------------9--9-9-9-9-9-9/11--11-11-11-11-11-11---|
  if not me then who?			if not now then when?


Chorus

Bridge

Ending (....Finally!!!!!!!!!!!!!!!!!)
2:50
|--------------------------------|
|-------------11-11-11-12~-------|
|-------------10-10-10-11~-------|
|-8-4-6-1-1----8--8--8--9~-------|
|-8-4-6-1-1----8--8--8--9~-------|
|-8-4-6-1-1----8--8--8--9~-------|
	      Set it off right now

|--------------------------------|
|--------------------------------|
|--------------4-4-4-6-6-6-------|
|-8-4-6-1-1----4-4-4-6-6-6-------|
|-8-4-6-1-1----2-2-2-4-4-4-------|
|-8-4-6-1-1----2-2-2-4-4-4-------|
	      Blow it up, set it off

|--------------------------------|
|-------------11-11-11-12~-------|
|-------------10-10-10-11~-------|
|-8-4-6-1-1----8--8--8--9~-------|
|-8-4-6-1-1----8--8--8--9~-------|
|-8-4-6-1-1----8--8--8--9~-------|
	      Fuck it up, set it off

|------------------------------------------------------------|
|------------------------------------------------------------|
|--------------8-8-8-----------------------------------------|
|-8-4-6-1-1----8-8-8-8-8-8--4-1~~-------------------1~-------|
|-8-4-6-1-1----6-6-6-8-8-8--4-1~~-------------------1~-------|
|-8-4-6-1-1----6-6-6-8-8-8--4-1~~-------------------1~-------|
	      Blow it up, Blow it up right now


ENJOY and PLAY HARD!!!!
Добавлено: 06.05.2014
Другие материалы по этой песне:

Страница создана 15.03.2012
http://primanota.ru/papa-roach/not-listening-chords.htm
Привет, Гость.
Предлагаем пройти революционный курс по гитаре.
Подарок от PrimaNota.Ru, забирай!