PrimaNota.ru - самый крупный в мире бесплатный архив песенных текстов, аккордов, табулатур и нот


Papa Roach - Into The Light - текст песни, таба, видео

Регистрация Запомнить меня
Войти через:  Facebook Google Twitter Vk Yandex Mail.ru

Papa Roach - Into The Light - текст песни, таба, видео

Печатать
Просмотров: 379
-------------------------------------------------------------------------------
		Papa Roach - Into The Light - Metamorphosis
-------------------------------------------------------------------------------
Tabbed by: Papamaxofficial
Email:papamaxofficial@hotmail.com


-------------------------------------------------------------------------------
		Papa Roach - Into The Light - Metamorphosis
-------------------------------------------------------------------------------
Tabbed by: Papamaxofficial
Email:papamaxofficial@hotmail.com


-----------------------------------------------------------------------------
Hey. This is my first tab! All done by ear. Hope you will enjoy and learn :P 

Ps. I can't figure out the solo that is played by the Motley Crew dude. 
    sorry about that.
-----------------------------------------------------------------------------
Updated! Vers Fixed + solo

Tuning: Drop D

  
[Intro]

  Bass plays   Guitar intro x4            Ends on -Let ring
e|----------|-|-------------------------|------|
B|----------|-|-------------------------|------|
G|----------|-|-77777-------------------|------|
D|----------|-|-77777-77777-88888-55555-|-0~~~~|
A|----------|-|-55555-77777-88888-55555-|-0~~~~|
D|----------|-|-------77777-88888-55555-|-0~~~~| - Leads into the vers.

  

[ Vers 1]

"... And a mouth full of lies"           "... i feel like i wanna die"
e|---------------------------------------------------------------------------|
B|---------------------------------------------------------------------------|
G|~~~~~~--------------------3~~--|--------|----------------------------------|
D|~~~~~~--------------------3~~--|Let Ring|------------------------SLIDE-----|
A|~~~~~~--------------------1~~--|--------|----------------------------------|
D|-----------------------------------------------------------------12/0------|
  " i'm a king of nothin.."          "... i've been taking beating"
e|----------------------------------------------------------------------------|
B|----------------------------------------------------------------------------|
G|----------------------------------------------------------------------------|
D|-5555-x-5555-x-10101010-x-9999-x|<-Play 2 times|-3333-x-3333-x-9999-x-5555-x|
A|-7777-x-7777 x-8 8 8 8 -x-7777-x|<-------------|-1111-x-1111-x-7777-x-3333-x|
D|----------------------------------------------------------------------------|

e|-----------------------------|
B|-----------------------------|
G|-----------------------------|
D|-3333-x-3333-x-5555-x-5555---|
A|-1111-x-1111-x-3333-x-7777---|
D|-----------------------------|

  
  
[ CHORUS 1 ]

e|---------------------------------------------|
B|---------------------------------------------|
G|---------------------------------------------|
D|-0~---3-5--------6-5-3---7~--3-5-----0-7-5-3-|
A|-0~---3-5----00--6-5-3---5~--3-5--00-0-7-5-3-|
D|-0~---3-5----00--6-5-3-------3-5--00-0-7-5-3-|
               PM                   PM
e|------------------------------------------------|---|
B|------------------------------------------------|---|
G|------------------------------------------------|---|
D|-0~---3-5--------6-5-3---7~--3-5------------99--|-0~| Leads to the vers 2. 
A|-0~---3-5----00--6-5-3---5~--3-5------------77--|-0~|
D|-0~---3-5----00--6-5-3-------3-5----------------|-0~|
               PM
 
[ VERS 2 ]

( REPEAT VERS 1 !) :)



[ CHORUS 2 ]

e|--------------------------------------------|
B|--------------------------------------------|
G|--------------------------------------------|
D|-0~---3-5--------6-5-3---7~--3-5------7-5-3-|
A|-0~---3-5----00--6-5-3---5~--3-5--00--7-5-3-|
D|-0~---3-5----00--6-5-3-------3-5--00--7-5-3-|
               PM                   PM

D|-0~---3-5--------6-5-3---7~--3-5----------0~---3-5--------6-5-3---7~--3-5------7-5-3-| 
A|-0~---3-5----00--6-5-3---5~--3-5--000000--0~---3-5----00--6-5-3---5~--3-5--00--7-5-3-|
D|-0~---3-5----00--6-5-3-------3-5- 000000--0~---3-5----00--6-5-3-------3-5--00--7-5-3-|
               PM                   PMPMPM              PM                   PM

D|-0~---3-5--------6-5-3---7~--3-5-| 
A|-0~---3-5----00--6-5-3---5~--3-5-| 
D|-0~---3-5----00--6-5-3-------3-5-| 
               PM                   

[Solo]

e|--------------------------------------------------------
B|--------------------------------------------------------
G|--------------------------------------------------------
D|---12p0--12p0--14/15--12\10---12p0--12p0--14/15--12\10-- 
A|-------0-----0------0-------------0-----0------0--------
D|--------------------------------------------------------
                                                          

 ------------------------------------------------|
 ------------------------------------------------|
 ------------------------------------------------|
 -----------14/15--12\10-----------14/15--12\10--|
 -1313131313-----0-------1515151515-----0--------|
 ------------------------------------------------| Play 4 times!
 (thirteen's)           (fifteen's)


Motley Crew Solo - nr. 2 (can't figure it out)   
 
[Guitar 2 during solo]


e||-------------------------|
B||-------------------------|
G||-77777-------------------|
D||-77777-77777-88888-55555-|
A||-55555-77777-88888-55555-|
D||-------77777-88888-55555-|

[CHORUS]

(Repeat Chorus!)

[OUTRO] 
e|--------------------------|
B|--------------------------|
G|-----------------------7~-|
D|-6--5--3--0------------7~-|
A|-6--5--3--0------------5~-|
D|-6--5--3--0---------------|

Thanks! Please rate ;P


| /  slide up
| \  slide down
| p  pull-off
| ~  Let ring
| x  Mute note
===============================================================================
Добавлено: 21.07.2012
Другие материалы по этой песне:

Страница создана 12.06.2012
http://primanota.ru/papa-roach/into-the-light-chords.htm
Привет, Гость.
Предлагаем пройти революционный курс по гитаре.
Подарок от PrimaNota.Ru, забирай!