PrimaNota.ru - самый крупный в мире бесплатный архив песенных текстов, аккордов, табулатур и нот


Papa Roach - Hidden track on infest after song no 11 - бас-таба, видео

Регистрация Запомнить меня
Войти через:  Facebook Google Twitter Vk Yandex Mail.ru

Papa Roach - Hidden track on infest after song no 11 - бас-таба, видео

Печатать
Просмотров: 166


This is the hidden track at the end of the album infest.  I dont know its name 
verse
G|---------------------------------------------------------------------------|
D|----------222-220----------000-0-------------------------------------------|
A|---00-0--------------------------------------------------------------------|
E|--------------------33-3-----------3---------------------------------------|


bridge
G|---------------------------00----------------------------------------------|
D|------------------22-222--------2----------22-2-33-------------------------|
A|----00-0----------------------00-0-----------------------------------------|
E|--------33-3---------------------------------------------------------------|


chorus
G|---------------------------------------------------------------------------|
D|---------------------------------------------------------------------------|
A|----0------------------0---------------------------------------------------|
E|--------3-0-00-0-33-0------01--00--000-------------------------------------|


Post-chorus (variation on verse)
G|---------------------------------------------------------------------------|
D|----------22----------22----------00---------------------------------------------|
A|---00-0--------00-0--------------------------------------------------------------|
E|---------------------------33-3--------33-33--------------------------------------|
Verse x 4
Bridge x 1
Chorus x 2
Post-chorus x 4
Verse x 2
Chorus x 2
Post-chorus x 2
Interlude (nothing to play on bass here)
Verse x 2
Chorus played until the end

Submitted by Max.


Добавлено: 19.11.2013
Другие материалы по этой песне:
  • Аккорды и текст

Страница создана 19.11.2013
http://primanota.ru/papa-roach/hidden-track-on-infest-after-song-no-11-chords.htm
Привет, Гость.
Предлагаем пройти революционный курс по гитаре.
Подарок от PrimaNota.Ru, забирай!