PrimaNota.ru - самый крупный в мире бесплатный архив песенных текстов, аккордов, табулатур и нот


Papa Roach - Fire - текст песни, таба, бас-таба, видео

Регистрация Запомнить меня
Войти через:  Facebook Google Twitter Vk Yandex Mail.ru

Papa Roach - Fire - текст песни, таба, бас-таба, видео

Печатать
Просмотров: 612
It contents just the sounds, not the rythm.
I hope it helps you play this great song.
Please write if you find a better tab, noname@kgb.hu

Intro
||-----------------------||
||---------7-----------8-||
||6-7-6----7--6-7-6----7-|| × 4
||------7--9--------7--5-||
||-----------------------||
||-----------------------||

Verse
||-----------------------||
||---7--7------7--7------||
||--7-7--7----7-7--7-----|| 
||9----9--9--5---5--5----||
||-----------------------||
||-----------------------||

Prechorus
||-----------------------||
||-----------------------||
||-----10-------11-------|| 
||-----10-------11-------||
||-----8--------9--------||
||8---------4------------||

Chorus
||-----------------------||
||-----------------------||
||11--10--8--11--13------|| 
||11--11--8--11--13------||
||9---8---6--9---11------||
||-----------------------||
Добавлено: 30.04.2012
Другие материалы по этой песне:

Страница создана 07.03.2012
http://primanota.ru/papa-roach/fire-chords.htm
Привет, Гость.
Предлагаем пройти революционный курс по гитаре.
Подарок от PrimaNota.Ru, забирай!