PrimaNota.ru - самый крупный в мире бесплатный архив песенных текстов, аккордов, табулатур и нот


Papa Roach - Do Or Die - текст песни, таба, бас-таба, видео

Регистрация Запомнить меня
Войти через:  Facebook Google Twitter Vk Yandex Mail.ru

Papa Roach - Do Or Die - текст песни, таба, бас-таба, видео

Печатать
Просмотров: 1263
Уроки эстрадного вокала в Санкт-Петербурге
Авторы музыки: Tobin Esperance, Jerry Horton
Авторы текста: Jacoby Shaddix
-------------------------------------------------------------------------------
                             Do or Die - Papa Roach
-------------------------------------------------------------------------------
Tabbed by: Nic
Email: AIM- Munky8461

Tuning:The tuning on this one is a little different...the 6th string is a C flat...
the rest of the guitar is in regular D flat tuning...so flat all your strings even
though I didnt type that on the tab

verse part 1

e|---------------------------------------------------------------------------|
B|---------------------------------------------------------------------------|
G|-----10----9---5--7------10----9------5------------------------------------|
D|---0----0----0---------0----0----0--7---7----------------------------------|
A|---------------------------------------------------------------------------|
C|-0-------------------0-----------------------------------------------------|
Let the open D string sustain and let the 7-5-7 ring


When the singer goes "But on the inside..." theres a little change to the riff...

e|---------------------------------------------------------------------------|
B|---------------------------------------------------------------------------|
G|---10-9-5-7------------10-9-----5------------------------------------------|
D|-----------------------------7----7----------------------------------------|
A|---------------------------------------------------------------------------|
C|--0----------------0-------------------------------------------------------|

Let the open 6th string ring...Play all notes as if you were still hitting the open
D string...same rythym...play once then go back to main riff

Pre Chorus

e|---------------------------------------------------------------------------|
B|---------------------------------------------------------------------------|
G|--5-----3---5--------------------------------------------------------------|
D|--5-----3---5--------------------------------------------------------------|
A|--3-----1---3--------------------------------------------------------------|
C|---------------------------------------------------------------------------|

Sustain the first chord and then mute the second 2and play them to the rhytym...also
the verse notes are mixed in to the pre chorus

Chorus

e|---------------------------------------------------------------------------|
B|---------------------------------------------------------------------------|
G|-------2-----5--------------2-----5----------------------------------------|
D|--3----0-----5----5----3----0-----5----3-----------------------------------|
A|--3----0-----3----5----3----0-----3----3-----------------------------------|
C|--5----2-----0----7----5----2-----0----1-----------------------------------|

Thats the chorus...same rhythym through the whole thing...easy to figure out

interlude...this is somewhat like the verse but slightly different

e|---------------------------------------------------------------------------|
B|---------------------------------------------------------------------------|
G|------15---14-----10-----------10----9---5---------------------------------|
D|----0----0----0------12-----0-----0----7---7-------------------------------|
A|---------------------------------------------------------------------------|
C|--0-----------------------0------------------------------------------------|

Then it goes back to the regular verse riff...then pre chorus...then chorus

the bridge riff

e|---------------------------------------------------------------------------|
B|---------------------------------------------------------------------------|
G|---------------------------------------------------------------------------|
D|---------------------------------------------------------------------------|
A|---------------------------------------------------------------------------|
C|-0-2-5-2-4-2-0-2-----------------------------------------------------------|

This repeats a few times...then it goes back to the verse riff...then the chorus...
finally...the outro is a mix of the bridge and the verse riffs.

| /  slide up
| \  slide down
| h  hammer-on
| p  pull-off
| ~  vibrato
| +  harmonic
| x  Mute note
===============================================================================
Добавлено: 15.06.2012
Другие материалы по этой песне:

Страница создана 19.03.2012
http://primanota.ru/papa-roach/do-or-die-chords.htm
Привет, Гость.
Предлагаем пройти революционный курс по гитаре.
Подарок от PrimaNota.Ru, забирай!