PrimaNota.ru - самый крупный в мире бесплатный архив песенных текстов, аккордов, табулатур и нот


Papa Roach - Alive N Out Of Control - текст песни, таба, бас-таба, видео

Регистрация Запомнить меня
Войти через:  Facebook Google Twitter Vk Yandex Mail.ru

Papa Roach - Alive N Out Of Control - текст песни, таба, бас-таба, видео

Печатать
Просмотров: 375
Intro:

E---------------------------------------------------------------------------|
B---------------------------------------------------------------------------|
G---------------------------------------------------------------------------|
D---------------------------------------------------------------------------|
A---3-------6---------------------------------------------------------------|
E------------------4------1-------------------------------------------------|

Verse A (i dont know what to call them, so there gonna be Letters: A. B. C)

     ( C5 )          ( D#5 )         ( G#5 )
E----------------------------------------------------------------------------|
B----------------------------------------------------------------------------|
G----------------------------------------------------------------------------|
D--5---5---5---5-8---8---8---8-----------------------------------------------|
A--3-3-3-3-3-3-3-6-6-6-6-6-6-6--6---6---6---6-3---3---3---3---3--------------|
E-------------------------------4-4-4-4-4-4-4-1-1-1-1-1-1-1-1-1--------------|

Verse B:

"Chug" on this Chord: in other words,play around with the struming.

E---------------------------------------------------------------------------|
B---------------------------------------------------------------------------|
G---------------------------------------------------------------------------|
D---------------------------------------------------------------------------|
A--3------------------------------------------------------------------------|
E--1------------------------------------------------------------------------|

Verse C: (00:48 through 00:56) play this 4 times

E---------------------------------------------------------------------------|
B---------------------------------------------------------------------------|
G---------------------------------------------------------------------------|
D---------------------------------------------------------------------------|
A---------------------------------------------------------------------------|
E-1-1-4^1-3^1-4^1-----------------------------------------------------------|
               ^= bull off; or Slur if u play traditional band

Verse C... than D... than B

Verse D:
    ( C5 )           (F5)       (A5)
E----------------------------------------------------------------------------|
B----------------------------------------------------------------------------|
G----------------------------------------------------------------------------|
D--5--5---5-5-5--------------------------------------------------------------|
A--3--3---3-3-3-3--3---3-3-3--7--7---7-7-7---3--3---3-3-3--------------------|
E---------------1--1---1-1-1--5--5---5-5-5---1--1---1-1-1--------------------|


E---------------------------------------------------------------------------|
B---------------------------------------------------------------------------|
G---------------------------------------------------------------------------|
D--5--5---5-5-5--9--9---9-9-9-----------------------------------------------|
A--3--3---3-3-3--7--7---7-7-7--7--7--7---7-7-7--3--3---3-3-3----------------|
E------------------------------5--5--5---5-5-5--1--1---1-1-1----------------|


still working on the solo... but 4 u that just like playing songs through, the solo has 
"A" playing behind it.
Добавлено: 17.06.2013
Другие материалы по этой песне:
  • Аккорды и текст

Страница создана 17.06.2013
http://primanota.ru/papa-roach/alive-n-out-of-control-chords.htm
Привет, Гость.
Предлагаем пройти революционный курс по гитаре.
Подарок от PrimaNota.Ru, забирай!