PrimaNota.ru - самый крупный в мире бесплатный архив песенных текстов, аккордов, табулатур и нот


Papa Roach - Addict - текст песни, таба, видео

Регистрация Запомнить меня
Войти через:  Facebook Google Twitter Vk Yandex Mail.ru

Papa Roach - Addict - текст песни, таба, видео

Печатать
Просмотров: 252
The Addict
Papa Roach
The Paramour Sessions
Updates:
5/18/07-forgot the bridge so i added that


Okay, I just took a shot at this because there wasn't even a tab on the website but this
keep you occupied until a better version comes out enjoy and please rate.Ill try and get 
end solo in later

Tuning Drop-C (C G C F A D)
gtr 1 C G C F A D
gtr 2 C G C F A D

Q=170

Intro
|-------------------|--------|
|-------------------|--------|
|-0-----------------|--------|
|-0-----------------|-12\----|
|-0-----------------|-12\----|
|-0-----------------|-12\----|

|---------------|    |--------------------------------|
|---------------|    |--------------------------------|
|---------------|    |--------------------------------|
|-4—-4—-2-4-2-4-|    |-7--7--7-7-7-7—-12—-12-9-12-9-7-|
|-4—-4—-2-4-2-4-|    |-7—-7—-7-7-7-7—-12—-12-9-12-9-7-|
|-4—-4—-2-4-2-4-|x2  |-7—-7—-7-7-7-7—-12—-12-9-12-9-7-|

Verse
|-------------------------------------------|
|-------------------------------------------|
|-------------------------------------------|
|-4---2-4-2-4—-2-4-2-4—-2-4-2-12---2-4-2-4--|
|-4---2-4-2-4—-2-4-2-4—-2-4-2-12---2-4-2-4--|
|-4---2-4-2-4—-2-4-2-4--2-4-2-12---2-4-2-4--|

Pre_chorus
|----------------------------------------------|
|----------------------------------------------|
|----------------------------------------------|
|-4---4-4-4----4-4-4---4-4-4---12---12-12-12---|
|-4---4-4-4----4-4-4---4-4-4---12---12-12-12---|
|-4---4-4-4----4-4-4---4-4-4---12---12-12-12---|
|
|Gtr 2
|------------------------|   -------------------------|
|------------------------|   -------------------------|
|11-11-11-11-11-11-11-11-|   -19-19-19-19-19-19-19-19-|
|-x--x--x--x--x--x--x--x-|   --x--x--x--x--x--x--x--x-|
|-9--9--9--9--9--9--9--9-|   -17-17-17-17-17-17-17-17-|
|------------------------|x4 -------------------------|x4

Chorus
|----------------|---------------|
|----------------|---------------|
|----------------|---------------|
|-4------------4-|-7-------------|
|-4------------4-|-7-------------|
|-4------------4-|-7-------------|

After Chorus The little Solo Thing

Gtr 2(Gtr 1 plays intro)
|-------------------|   |----------------| |-----------------------------|
|-------------------|   |-5-------7------| |-12-----7------5------3------|
|-11--11--9h11p9h11-|   |---9--11---9-11-| |---9-11--9--11---9-11---9-11-|
|-------------------|   |----------------| |-----------------------------|
|-------------------|   |----------------| |-----------------------------|
|-------------------|   |----------------| |-----------------------------|
|-------------------|x3 |----------------| |-----------------------------|


Bridge
PM   |----------------|     PM|      PM-------|
|---------------------------------------------|
|---------------------------------------------|
|---------------------------------------------|
|-4---------------------7--------12-----------|
|-4---4--4--4--4--4-4-4-7-----7--12---12------|
|-4---4--4--4--4--4-4-4-7-----7--12---12------|x3

PM   |----------------|     PM----------------|
|---------------------------------------------|
|---------------------------------------------|
|---------------------------------------------|
|-4---------------------7--------12-----------|
|-4---4--4--4--4--4-4-4-7-----7--12-----------|
|-4---4--4--4--4--4-4-4-7-----7--12-----------|
Добавлено: 11.07.2013
Другие материалы по этой песне:
  • Аккорды и текст

Страница создана 11.07.2013
http://primanota.ru/papa-roach/addict-chords.htm
Привет, Гость.
Предлагаем пройти революционный курс по гитаре.
Подарок от PrimaNota.Ru, забирай!