PrimaNota.ru - самый крупный в мире бесплатный архив песенных текстов, аккордов, табулатур и нот


Papa Chango - Lady Material - таба, видео

Регистрация Запомнить меня
Войти через:  Facebook Google Twitter Vk Yandex Mail.ru

Papa Chango - Lady Material - таба, видео

Печатать
Просмотров: 59
Intro

       G           G      D      C           E             D
e /–----------/-------------------------------------------------------|
B /–-8888888--/-------------------------------------------------------|
G /–-7777777--/---------7777---5555------9-----9---9-----7-----7---7--| X2
D /--5555555--/--5555---7777---5555------9-----9---9-----7-----7---7--|
A /-----------/--5555---5555---3333---X777--X777-X77--X555--X555-X55--|
E /-----------/--3333-------------------------------------------------| /Intro Con Batería/
Verso
      G          D         C              E              D
e –------------------------------------------------------------------|
B -------------------------------------------------------------------|
G -----------------------------------9-----9---9-----7-----7---7-----| X2
D ------------X777777X–-X555555X-----9-----9–--9-----7-----7–--7-----|
A –-X555555X–-X555555X–-X333333X–-X777–-X777-X77–-X555–-X555-X55-----|
E –-X333333X---------------------------------------------------------|
Precoro
    E      D      E      C    D
e –------------------------------------------------------------------|
B -------------------------------------------------------------------|
G –-9~~----7~~----9~~----5~~-7X--------------------------------------|
D –-9~~----7~~----9~~----5~~-7X--------------------------------------|
A –-7~~----5~~----7~~----3~~-5X--------------------------------------|
E -------------------------------------------------------------------|
Coro
     G      D            C               E    D
e –------------------------------------------------------------------|
B -------------------------------------------------------------------|
G --------7777------5-----5-----5-----5--99--77----------------------| X2
D --5555--7777---------------------------99--77----------------------|
A --5555--5555—-X33X—-X33X—-X33X—-X33X---77--55----------------------|
E --3333-------------------------------------------------------------|
Después del coro la 1ra vuelta igual al Intro y la 2da vuelta así:
     G         D      C           E              D
e –--------------------------------------------------------------------|
B ---------------------------------------------------------------------|
G --------555/7777--5555-----9-----9---9-----7-----7---7---------------|
D –-5555—-555/7777--5555-----9-----9---9-----7-----7---7---------------|
A --5555—-333/5555--3333—-X777—-X777-X77—-X555—-X555-X55---------------|
E --3333---------------------------------------------------------------|

2do Verso
                G                          D
e –-------------------------------10---10---10---10---10-------------|
B ------8----8----8----8----8----------------------------------------|
G –---------------------------X77X—X77X—X77X—X77X—X77X---------------|
D –-X55X—X55X-X55X-X55X-X55X-----------------------------------------|
A –------------------------------------------------------------------|
E -------------------------------------------------------------------|


E                C                E      D
e –-----8----8----8----8----8---787-----8787-------------------------|
B ---------------------------------10-------8------------------------|
G –-X55X-X55X-X55X-X55X-X55X---9-------7-----------------------------|
D –------------------------------------------------------------------|
A –------------------------------------------------------------------|
E -------------------------------------------------------------------|


        G         D        C            E         D   ~Inicia Precoro
e –------------------------------------------------------------------|
B -------------------------------------------------------------------|
G –----------------------------------9-----9~------777~7789~~--------|
D –-----------X777777X—-X555555X-----9-----9~------777~7789~~--------|
A –-X555555X—-X555555X--X333333X--X777--X777~-X555X555~5567~~--------|
E –-X333333X---------------------------------------------------------|

  Continúa Precoro
    E      D      E      C    D
e –------------------------------------------------------------------|
B -------------------------------------------------------------------|
G --7~~----9~~----5~~-7X---------------------------------------------|
D --7~~----9~~----5~~-7X---------------------------------------------|
A --5~~----7~~----3~~-5X---------------------------------------------|
E -------------------------------------------------------------------|
Coro
     G      D            C               E    D
e –------------------------------------------------------------------|
B -------------------------------------------------------------------|
G --------7777------5-----5-----5-----5--99--77----------------------| X2
D --5555--7777---------------------------99--77----------------------|
A --5555--5555—-X33X—-X33X—-X33X—-X33X---77--55----------------------|
E --3333-------------------------------------------------------------|
Del coro pasa directo a esto:
        G           D            C            E       D
e –------------------------------------------------------------------|
B -------------------------------------------------------------------|
G ---------------X7777X7—-----X5555X5------X9999X9-X7777X7-----------|
D --X5555X5------X7777X7(x2)--X5555X5(x2)--X9999X9-X7777X7-----------|
A –-X5555X5(x2)--X5555X5–-----X3333X3–-----X7777X7–X5555X5-----------|
E –-X3333X3----------------------------------------------------------|

Puente (Solo de Guitarra)
         (G)(D)(C)             E        D       (G)(D)(C)(E)(D)
e –-(--8/7----8/7—-878)------108787----8787---(--8/7----8/7-878)-----|
B –-(88---8-88---8----)-(x3)-------10------8—-(88---8-88---8---)(x6)-|
G –------------------------------------------------------------------|
D –------------------------------------------------------------------|
A –------------------------------------------------------------------|
E -------------------------------------------------------------------|





      ...de mi ni te acuerdees... me marcho de acaaa...       G
e –---8/710---8/7-10-7—10~~-----------------------------------------------|
B --88------88---8--8--------------------------------7/87----87----87-----|
G –------------------------------------------------------7~~---7~~---9~~--|
D –-----------------------------------------------------------------------|
A –-----------------------------------------------------------------------|
E ------------------------------------------------------------------------|
                      Coro
            G                  G    D    C        E              D
e –------------777888101010~~---------------------------------------------|
B --88810101010-----------------------------------------------------------|
G –-------------------------------7777-5555----9-----9---9----7-----7---7-|
D –--------------------------5555-7777-5555----9-----9---9----7-----7---7-|
A –--------------------------5555-5555-3333-X777—-X777-X77-X555—-X555-X55-|
E ---------------------------3333-----------------------------------------|
     G
e –----------------------------------------------------------------------|
B -----------------------------------------------------------------------|
G –----------------------------------------------------------------------|
D –-5~~~~----------------------------------------------------------------|
A –-5~~~~----------------------------------------------------------------|
E –-3~~~~----------------------------------------------------------------|

X#X=palm mute todas las notas
X#=palm mute la primera nota
#X=se toca y se apaga el sonido
#~~=un solo rasgado se deja sonar
#/#=pull off
Добавлено: 22.08.2013
Другие материалы по этой песне:
  • Аккорды и текст

Страница создана 31.07.2013
http://primanota.ru/papa-chango/lady-material-chords.htm
Привет, Гость.
Предлагаем пройти революционный курс по гитаре.
Подарок от PrimaNota.Ru, забирай!