PrimaNota.ru - самый крупный в мире бесплатный архив песенных текстов, аккордов, табулатур и нот


Paolo Santos - Comfortable ni totomicsclan - таба

Регистрация Запомнить меня
Войти через:  Facebook Google Twitter Vk Yandex Mail.ru

Paolo Santos - Comfortable ni totomicsclan - таба

Печатать
Просмотров: 45


COMFORTABLE
Paolo Santos

totoMicsClan
frenz ko sa davao halu
grabe ang ulan dri krn
cge

Standard Tuning	(EADGBE)
Capo on 3rd fret

Intro:

E------------------------|
B-0---0-----2------3-----|
G--0---0------2-------4--|play 4x
D---0---0---2--2---4---4-|
A------------------------|
E-3----------------------|

E--0h2-----2-0-----0-2-3-2----|-----222p0------0h2-3-2-0----
B------3-------3-----------3--|-----------3----1---------3--
G-------2-------------------0-|---0------------0------------
D--0--------------------------|----------------2-----0------
A-----------------------------|-2--------------0------------
E------------------1----------|-----------------------------

E------------------------|------------------------|
B-0---0-----2------3-----|-0---0-----2------3-----|
G--0---0------2-------4--|--0---0------2-------4--|
D---0---0---2--2---4---4-|---0---0---2--2---4---4-|
A------------------------|------------------------|
E-3----------------------|-0----------------------|

Verse:
i just remember..

E----2-0--------2------2-0-----0h2-3-2-0------
B---3---3------3------3---3----1---------3----
G--2----------0------0---------0--------------
D-0----------------------------2-----0--------
A-----------1-------2----------0--------------
E---------------------------------------------

and rolled down..

E------------------------|------------------------|
B-0---0-----2------3-----|-0---0-----2------3-----|
G--0---0------2-------4--|--0---0------2-------4--|
D---0---0---2--2---4---4-|---0---0---2--2---4---4-|
A------------------------|------------------------|
E-3----------------------|-0----------------------|

Pre-chorus:
i can't remember..

E----3----------
B---3-3-----3-2-
G--0--------2-2-
D---------2-----play 2x
A--------0------
E-3-------------

if you have to..

E---------0---2-
B---------------
G------4--------
D-----4---------
A---------------
E-4-------------

Chorus:
our love was..

E-2--------2---3---0--
B-3--------3---3---32--
G-2--------0---0---22--
D-0--------0---0---22--
A---0-0sl/-2---0---0--
E--------------3--------

2nd chorus:

E-2--------2---3---0--
B-3--------3---3---32--
G-2--------0---0---22--
D-0--------0---0---22--
A---0-0sl/-2---0---0--
E--------------3--------

she's perfect..

E-2--------2-
B-3--------3-
G-2--------0-
D-0--------0-
A---0-0sl/-2-
E------------

or so they say..

E--1--0--0--0-----------
B--1--1--3--0-----------
G--0--0--2--1-----------
D--3--2--0--0-----------
A--0--0--2--2-----------
E-----------0--------

say..

E-3--0--
B-3--2--
G-0--3--
D-0--2--
A-0--0--
E-3--3--

say..

E--0--0--3--0-|
B--3--0--3--2-|
G--2--1--0--3-|
D--0--0--0--2-|
A--2--2--0--0-|
E-----0--3--0-|

Adlib:

E-3~-2-0-|------3-----2-----
B--------|------------------
G--------|------------------
D--------|------------------
A--------|---------0--1--3--
E--------|-0-2--3-----------


Добавлено: 08.11.2013
Другие материалы по этой песне:
  • Аккорды и текст

Страница создана 08.11.2013
http://primanota.ru/paolo-santos/comfortable-ni-totomicsclan-chords.htm
Привет, Гость.
Предлагаем пройти революционный курс по гитаре.
Подарок от PrimaNota.Ru, забирай!