PrimaNota.ru - самый крупный в мире бесплатный архив песенных текстов, аккордов, табулатур и нот


Panzerchrist - Tomorrow - таба, видео

Регистрация Запомнить меня
Войти через:  Facebook Google Twitter Vk Yandex Mail.ru

Panzerchrist - Tomorrow - таба, видео

Печатать
Просмотров: 98
Legend
.  - palm mute           /  - slide up to
\  - slide down to       ~  - vibrato
h  - hammer on           b  - Bend
p  - pull off            Suffixes for bend
t  - tap                 f  - full bend    h - half bend
ph - pinched harmonic    q  - quarter bend t - tap bend
*  - see comment         ^  - Hold bend    r release bend
x  - Stuccatto           ~  - vibrato bend
,  - slight palm mute    () - ghost note, sustained note
"  - tremolo note        <> - Trill


I pass this song to this tunning, i don't know if it's played
in a 7 strings guitar but in this tunning is good to play it.

Tunning B F# B E G# C#


Riff 1
    Repeat X6     Chord of Outro too
|----------------||----------------|
|----------------||----------------|
|----------------||----------------|
|----------------||----------------|
|------------6-5-||-0--------------|
|-0---1---6------||-0--------------|


Riff 2
       This X3
|---------------------|------------------|
|---------------------|------------------|
|---------------------|------------------|
|-----------9---------|------------------|
|------11-8-----------|---7-6------------|
|-0------------6-10-9-|-6-----6-10-9-6-9-|


Riff 3
|---------------------------------------------|
|---------------------------------------------|
|---------------------------------------------|
|---------------------------------------------|
|-0-0-0--0------------------------------------|
|-0-0-0--0-----3p2h3p2h3p2h3p2-5p6h5p6h5p6h5p6|
  . . .

|---------------------------------------------|
|---------------------------------------------|
|---------------------------------------------|
|---------------------------------------------|
|-6-6-6--6------------------------------------|
|-6-6-6--6-----3p2h3p2h3p2h3p2-5p6h5p6h5p6h5p6|
  . . .

Song Structure:
Riff 1
Riff 2 X2
Riff 3
Riff 2 X2
Riff 3
Riff 2 X2

END

http://www.panzerchrist.com/
Добавлено: 30.04.2012
Другие материалы по этой песне:

Страница создана 30.04.2012
http://primanota.ru/panzerchrist/tomorrow-chords.htm
Привет, Гость.
Предлагаем пройти революционный курс по гитаре.
Подарок от PrimaNota.Ru, забирай!