PrimaNota.ru - самый крупный в мире бесплатный архив песенных текстов, аккордов, табулатур и нот


Panx Romana - Kratos Kleiston - таба, видео

Регистрация Запомнить меня
Войти через:  Facebook Google Twitter Vk Yandex Mail.ru

Panx Romana - Kratos Kleiston - таба, видео

Печатать
Просмотров: 67
-------------------------------------------------------------------------------
                            Kratos Kleiston - Panx Romana
-------------------------------------------------------------------------------
Tabbed by: VakiPitsi

Tuning: Standard (eBGDAE)
                                               C     Dm      G
e|-----0-----------------------------------|---0------1------3--------------------------------|
B|----------------3----------1-----0-1-3---|---1------3------0--------------------------------|
G|---0---0------0---0------0---0-----------|---0------2------0--------------------------------|
D|-----------------------------------------|---2------0------0-----------10--12--5------------|
A|-3---------2--------0--------------------|---3-------------2-----------8---10--3------------|
E|-----------------------------------------|---0-------------3--------------------------------|

  (0:46-1:27) 1st guitar                  (0:55)  2nd guitar
e|-----------------------|------------------------------------------------------|
B|-----------------------|--5h6p5~~--5h6p5~~--5h6p5~~---8p6/5~~-----------------|
G|--5--------------------|------------------------------------------------------|
D|--5---5---7---5--------|------------------------------------------------------|
A|--3---5---7---5--------|------------------------------------------------------|
E|------3---5---3--------|------------------------------------------------------|

  (1:27-1:37)
e|-------------------------------------|--------------------------|
B|-------------------------------------|--------------------------|
G|-5---7---9----5---7---9----10---12---|--------------------------|
D|-5---7---9----5---7---9----10---12---|--7--5--3-----------------|
A|-3---5---7----3---5---7-----8---10---|--7--5--3-----------------|
E|-------------------------------------|--5--3--1-----------------|

The solo is just a couple of bends on the 6th and 10th of the G

*****************************
| /   slide up
| \   slide down
| h   hammer-on
| p   pull-off
| ~   vibrato
| +   harmonic
| x   Mute note
| b   Bend
| pb  Pre-bend
| br  Bend release
| pbr Pre-bend release
| brb Bend release bend

*****************************
Добавлено: 25.12.2015
Вам также может быть интересно:
Другие материалы по этой песне:
  • Аккорды и текст

Страница создана 25.12.2015
http://primanota.ru/panx-romana/kratos-kleiston-chords.htm
Привет, Гость.
Предлагаем пройти революционный курс по гитаре.
Подарок от PrimaNota.Ru, забирай!