PrimaNota.ru - самый крупный в мире бесплатный архив песенных текстов, аккордов, табулатур и нот


Panx Romana - Diakopes Sto Xaki - таба, видео

Регистрация Запомнить меня
Войти через:  Facebook Google Twitter Vk Yandex Mail.ru

Panx Romana - Diakopes Sto Xaki - таба, видео

Печатать
Просмотров: 63
-------------------------------------------------------------------------------
                    Diakopes Sto Xaki - Panx Romana
-------------------------------------------------------------------------------
Tabbed by: VakiPItsi
E-mail:

Tuning: Standard (eBGDAE)

Intro:
e|---------------------------------------------------------------------------|
B|---------------------------------------------------------------------------|
G|----5------7--------9--------7------5-------7-------9---------7------------|
D|-7----7/9-----9/10-----10\9----9/7-----7/9-----9/10-----10\9-----9---------|
A|---------------------------------------------------------------------------|
E|---------------------------------------------------------------------------|

e|-----------------x-x--------------------------|
B|-----------------x-x--------------------------|
G|------5----------x-x------5-------------------|
D|--7---5---5---7--x-x--7---5---5---7-----------|
A|--7---3---5---7--x-x--7---3---5---7-----------|
E|--5-------3---5--x-x--5-------3---5-----------|


 Solo:
e|---------------------------------------------------------------------------|
B|---------------------------------------------------------------------------|
G|---------------------------10-9h10p9---------------------------------------|
D|--7-7-7-----------7-7-7----------------------------------------------------|
A|--------7--5-3-5--------7--------------------------------------------------|
E|---------------------------------------------------------------------------|

The whole song consists of these 3 parts, nothing more


************************************

| /   slide up
| \   slide down
| h   hammer-on
| p   pull-off
| ~   vibrato
| +   harmonic
| x   Mute note
| b   Bend
| pb  Pre-bend
| br  Bend release
| pbr Pre-bend release
| brb Bend release bend

************************************
Добавлено: 25.12.2015
Вам также может быть интересно:
Другие материалы по этой песне:
  • Аккорды и текст

Страница создана 25.12.2015
http://primanota.ru/panx-romana/diakopes-sto-xaki-chords.htm
Привет, Гость.
Предлагаем пройти революционный курс по гитаре.
Подарок от PrimaNota.Ru, забирай!