PrimaNota.ru - самый крупный в мире бесплатный архив песенных текстов, аккордов, табулатур и нот


Pan.Thy.Monium - Dauwhnn - бас-таба, видео

Регистрация Запомнить меня
Войти через:  Facebook Google Twitter Vk Yandex Mail.ru

Pan.Thy.Monium - Dauwhnn - бас-таба, видео

Печатать
Просмотров: 36
Уроки эстрадного вокала в Санкт-Петербурге
Dauwhnn- Pan.Thy.Monium bass tab

Tabbed by: Mechayoshi
Created: 12/26/15
Tuning: A standard. 
Email: crazymechayoshi@gmail.com 

Extremely underrated but easy song. All you need is an open A string. 
This was tabbed by ear and follows the guitar with the exception of the Outro. 
Please message me for questions and corrections. 

Intro/Riff 1

B---------------------------------|
G---------------------------------|
D---------------------------------|
A-0-321---310---321---310---------| X11

Riff 2
B----------------------------------|
G----------------------------------|
D----------------------------------|
A-0000--6-3-4-----0000-6-3-2-------| x2

Riff 1 x2
Riff 2 x2

Riff 3
B----------------------------------|
G----------------------------------|
D----------------------------------|
A-0-1-4----0-1-4-3-----------------|x8

Riff 4
B----------------------------------|
G----------------------------------|
D----------------------------------|
A-000---4747-3---000-4747-1--------| x8

Outro riff
B----------------------------------|
G----------------------------------|
D----------------------------------|
A-0---00----0--0-0-0---------------|

Riff 2 x4

END

Arrangement:
Riff 1 x11
Riff 2 x2
Riff 1 x2
Riff 2 x2
Riff 3 x8
Riff 4 x8
Outro  x1
Riff 2 x4 (on fourth measure leave off last half of riff)
Добавлено: 16.02.2016
Другие материалы по этой песне:
  • Аккорды и текст

Страница создана 16.02.2016
http://primanota.ru/panthymonium/dauwhnn-chords.htm
Привет, Гость.
Предлагаем пройти революционный курс по гитаре.
Подарок от PrimaNota.Ru, забирай!