PrimaNota.ru - самый крупный в мире бесплатный архив песенных текстов, аккордов, табулатур и нот


Pantheist - Don't Mourn - текст песни, таба, видео

Регистрация Запомнить меня
Войти через:  Facebook Google Twitter Vk Yandex Mail.ru

Pantheist - Don't Mourn - текст песни, таба, видео

Печатать
Просмотров: 199
Уроки эстрадного вокала в Санкт-Петербурге
Tabbed 10/7/2012 by Hyks

Artist: Pantheist
Album: O Solitude
Song: Don't Mourn


Tuning: A tuning

Guitar intro (After keyboard intro)
||---------------|---------------|---------------|---------------||
||---------------|---------------|---------------|---------------||
||---------------|---------------|---------------|---------------||
||-7~~~~~~~~~~~~-|-5~~~~~~~~~~~~-|-7~~~~~~~~~~~~~|(7)~~~~~~~~~~--||
||---------------|---------------|---------------|---------------||
||---------------|---------------|---------------|---------------||

||---------------|---------------|---------------|---------------||
||---------------|---------------|---------------|---------------||
||---------------|---------------|---------------|---------------||
||-15~~~~~~~~~~~-|-17~~~~~~~~~~~-|-19-~~~~~~~~~~~|(19)~~~~~~~~~~-||
||---------------|---------------|---------------|---------------||
||---------------|---------------|---------------|---------------||


Riff 1
||---------------|---------------|---------------|---------------||
||---------------|---------------|---------------|---------------||
||---------------|---------------|---------------|---------------||
||-7~~~~~~~~~~~~-|-5~~~~~~~~~~~~-|-7~~~~~~~~~~~~~|(7)~~~~~~~~~~~-||
||-7~~~~~~~~~~~~-|-5~~~~~~~~~~~~-|-7~~~~~~~~~~~~~|(7)~~~~~~~~~~~-||
||-5~~~~~~~~~~~~-|-3~~~~~~~~~~~~-|-5~~~~~~~~~~~~~|(5)~~~~~~~~~~~-||


Riff 2
||---------------|---------------|---------------|---------------||
||---------------|---------------|---------------|---------------||
||---------------|---------------|---------------|---------------||
||-3~~~~~~~~~~~~-|-5~~~~~~~~~~~~-|-7~~~~~~~~~~~~~|(7)~~~~~~~~~~~-||
||-3~~~~~~~~~~~~-|-5~~~~~~~~~~~~-|-7~~~~~~~~~~~~~|(7)~~~~~~~~~~~-||
||-1~~~~~~~~~~~~-|-3~~~~~~~~~~~~-|-5~~~~~~~~~~~~~|(5)~~~~~~~~~~~-||


Riff 3
||--------------------------------------------------||
||-They're-playing-some-old-instrument-in-this-part-||
||-Can't be-bothered-figuring-it-out-at-the-moment--||
||--------------------------------------------------||
||--------------------------------------------------||
||--------------------------------------------------||


Riff 4
||---------------|---------------|---------------|---------------||
||---------------|---------------|---------------|---------------||
||---------------|---------------|---------------|---------------||
||-7~~~~~~~~~~~~~|(7)~~~~~~~~~~~~|(7)~~~~~~~~~~~~|(7)~~~~~~~-~~~~||
||-7~~~~~~~~~~~~~|(7)~~~~~~~~~~~~|(7)~~~~~~~~~~~~|(7)~~~~~~~~~~~-||
||-5~~~~~~~~~~~~~|(5)~~~~~~~~~~~~|(5)~~~~~~~~~~~~|(5)~~~~~~~~~~~-||


Riff 5
||--------------------------------------------------||
||--------------------------------------------------||
||--------------------------------------------------||
||-5~~-x-7-5~~~---------------7-~~-x-7-8~~~~~-10-~~-||
||-7~~-x-7-5~~~-0h2h3h5p3p2p0-7-~~-x-7-8~~~~~-10-~~-||
||-5~~-x-5-3~~~---------------5-~~-x-5-6~~~~~-8--~~-||


Riff 6
||------------------------------------------------------||
||------------------------------------------------------||
||---------------------------------4-~~~~~~-------------||
||-7~~~~~~~-10~~~9-~~~~-9-~~8-~~~~-4-~~~~~~-5-7-5-3-5-3-||
||-7~~~~~~~-8--~~7-~~~~-7-~~6-~~~~-2-~~~~~~-3-5-3-1-3-1-||
||-5~~~~~~~-8----7------7---6---------------------------||

Song order:

Keyboard intro
Guitar intro x1
Riff 1 x12
Riff 2 x2
Riff 3 x2
Riff 1 x8
Riff 2 x2
Riff 4 x3
Riff 5 x8
Riff 6 x5
Keyboard bridge
Riff 2 x4
Riff 1 x8
Riff 2 x2
Riff 3 x2
Добавлено: 16.11.2013
Вам также может быть интересно:
Другие материалы по этой песне:
  • Аккорды и текст

Страница создана 23.05.2012
http://primanota.ru/pantheist/dont-mourn-chords.htm
Привет, Гость.
Предлагаем пройти революционный курс по гитаре.
Подарок от PrimaNota.Ru, забирай!