PrimaNota.ru - самый крупный в мире бесплатный архив песенных текстов, аккордов, табулатур и нот


Pantera - Well Meet Again - текст песни, таба, видео

Регистрация Запомнить меня
Войти через:  Facebook Google Twitter Vk Yandex Mail.ru

Pantera - Well Meet Again - текст песни, таба, видео

Печатать
Просмотров: 146
-------------------------------------------------------------------------------
                             We'll Meet Again - Pantera
-------------------------------------------------------------------------------
Tabbed by: periah
E-mail: wild_indian_from_outerspace@hotmail.com

Tuning:EADGBE
tempo 150
Distortion guitar
riff 1
e|----------------------]----------------------]----------------------]----------------------|
B|----------------------]----------------------]----------------------]----------------------|
G|----------------------]----------------7-----]----------------------]----------------7-----|
D|--4-------4-----2-----]--4-------4-----7-----]-4-------4------2-----]-4-------4------7-----|
A|--4-------4-----2---2-]--4-------4-----5---2-]-4-------4------2---2-]-4-------4------5---5\|
E|--2-2-2-2---2-2-----0-]--2-2-2-2---2-2-----0-]-2-2-2-2----2-2-----0-]-2-2-2-2----2-2-------|
riff 2
e|---------------------------------]--------------------------------|
B|---------------------------------]--------------------------------|
G|----11---11---11-11---9------9---]---11---11---11-13---9------9---|
D|----11---11---11-11---9------9---]---11---11---11-13---9------9---|
A|-/9----9----9-------9----6-7---7-]-9----9----9-------9----6-7---7-|
E|---------------------------------]--------------------------------|
      
e|---------------------------------]----------------------------------|
B|---------------------------------]----------------------------------|
G|----11---11---11-11---9------9---]---11---11---11-13---9---6--7--9--|
D|----11---11---11-11---9------9---]---11---11---11-13---9---6--7--9--|
A|-/9----9----9-------9----6-7---7-]-9----9----9-------9--------------|
E|---------------------------------]----------------------------------|
riff 3
e|---------------------]---------------------]-----------|
B|---------------------]---------------------]-----------|
G|---------------------]---------------------]-7---------|
D|-4-------4-----2-----]-4-------4-----2-----]-7---7-----|
A|-4-------4-----2---2-]-4-------4-----2---2-]-5---7---2-|
E|-2-2-2-2---2-2-----0-]-2-2-2-2---2-2-----0-]-----5---0-|
riff 4                        2x
e|------------------------------]-----------------------------|
B|------------------------------]-----------------------------|
G|------------------------------]-----------------------------|
D|-4-------4-----2------2-------]-4-------4-----2------2------|
A|-4-------4-----2------2-------]-4-------4-----2------2------|
E|-2-2-2-2---2-2----0-0---0-0-0-]-2-2-2-2---2-2----0-0---0--0-|
riff 5
e|-------------------------------]-9-9-9-9-9--9\7-7-7-7-7--x-7\5-5-5-5-5--x-5\4-4-4-4-4-|
B|-------------------------------]-5-5-5-5-5--5\4-4-4-4-4--x-4\2-2-2-2-2--x-2\0-0-0-0-0-|
G|-------------------------------]------------------------------------------------------|
D|-4-----------------------------]------------------------------------------------------|
A|-4-----------------4-4-4-4-4-4-]------------------------------------------------------|
E|-2-2-2-2-2-2-2-2-2-2-2-2-2-2-2-]------------------------------------------------------|
riff 6
e|---------------------------------]--------------------]-----------------------------|
B|---------------------------------]--------------------]-----------------------------|
G|-11-11--9-9--11------------------]-11-11--9-9--11-----]-11-11--9-9------------------|
D|-11-11--9-9--11-\12--x-x-12--14--]-11-11--9-9--11-12--]-11-11--9-9--12-12---2---4---|
A|----------------\12--x-x-12--14--]-------------9--12--]-------------12-12-4---4---2-|
E|---------------------------------]--------------------]-----------------------------|

riff 2
e|---------------------------------]--------------------------------|
B|---------------------------------]--------------------------------|
G|----11---11---11-11---9------9---]---11---11---11-13---9------9---|
D|----11---11---11-11---9------9---]---11---11---11-13---9------9---|
A|-/9----9----9-------9----6-7---7-]-9----9----9-------9----6-7---7-|
E|---------------------------------]--------------------------------|

e|---------------------------------]----------------------------------|
B|---------------------------------]----------------------------------|
G|----11---11---11-11---9------9---]---11---11---11-13---9---6--7--9--|
D|----11---11---11-11---9------9---]---11---11---11-13---9---6--7--9--|
A|-/9----9----9-------9----6-7---7-]-9----9----9-------9--------------|
E|---------------------------------]----------------------------------|
riff 4                        2x
e|------------------------------]-----------------------------|
B|------------------------------]-----------------------------|
G|------------------------------]-----------------------------|
D|-4-------4-----2~-----2-------]-4-------4-----2~-----2------|
A|-4-------4-----2~-----2-------]-4-------4-----2~-----2------|
E|-2-2-2-2---2-2----0-0---0-0-0-]-2-2-2-2---2-2----0-0---0--0-|
riff 5
e|-------------------------------]-9-9-9-9-9--9\7-7-7-7-7--x-7\5-5-5-5-5--x-5\4-4-4-4-4-|
B|-------------------------------]-5-5-5-5-5--5\4-4-4-4-4--x-4\2-2-2-2-2--x-2\0-0-0-0-0-|
G|-------------------------------]------------------------------------------------------|
D|-4-----------------------------]------------------------------------------------------|
A|-4-----------------4-4-4-4-4-4-]------------------------------------------------------|
E|-2-2-2-2-2-2-2-2-2-2-2-2-2-2-2-]------------------------------------------------------|
riff 6
e|---------------------------------]--------------------|
B|---------------------------------]--------------------|
G|-11-11--9-9--11------------------]-11-11--9-9--11-----|
D|-11-11--9-9--11-\12--x-x-12--14--]-11-11--9-9--11-12--|
A|----------------\12--x-x-12--14--]-------------9--12--|
E|---------------------------------]----------------10--|
solo             
e|------17-----16b-16-16b-16b-19----19----17----19------------17----17-------19-------19-------21-------22b|
B|-3\17b--17b--------------------15----14----15----14\-/14-14----14----15-15----15-15----17-17----17-17----|
G|---------------------------------------------------------------------------------------------------------|
D|---------------------------------------------------------------------------------------------------------|
A|---------------------------------------------------------------------------------------------------------|
E|---------------------------------------------------------------------------------------------------------|

e|-----17-19-----17-19-----17-19-----17-19-21-19-17----17-21-19-17----17-22-19-17----17-21-19-17----17-22-|
B|-21b-------21b-------21b-------21b----------------21-------------21-------------21-------------21-------|
G|--------------------------------------------------------------------------------------------------------|
D|--------------------------------------------------------------------------------------------------------|
A|--------------------------------------------------------------------------------------------------------|
E|--------------------------------------------------------------------------------------------------------|

e|-19-17-16-17-16----------16h17p16-------14----------------------------------------|
B|----------------17p15h17----------17p15----15h17----17-15-------15-14----14-15-14-|
G|-------------------------------------------------18-------18-16-------17----------|
D|----------------------------------------------------------------------------------|
A|----------------------------------------------------------------------------------|
E|----------------------------------------------------------------------------------|

e|----------------------------------------------------------------------------------------------------|
B|----14h17p14----17-17p14----17p14h17p14----14-17p14h17----14h17-19p14----19-17p14h17p14-------------|
G|-17----------17----------17-------------17-------------17-------------17----------------17p16p14----|
D|------------------------------------------------------------------------------------------------14--|
A|----------------------------------------------------------------------------------------------------|
E|----------------------------------------------------------------------------------------------------|

e|-17-17-------------------10t9-10t7-10t5--------------10t9-10t7-10t5--------------------|
B|-------17------------------------------10t9-10t7-10t5--------------10t9-10t7-10t5-10t2-|
G|----------17-16-14----14---------------------------------------------------------------|
D|-------------------16------------------------------------------------------------------|
A|---------------------------------------------------------------------------------------|
E|---------------------------------------------------------------------------------------|
     / hold bend         \                                                  /  half bend \
e|----------------------------------------------2-1-2-2-4-5-7-9-10-9p7---7--------------------14b-14-|
B|--------------------------------------------2------------------------9-----------------------------|
G|-4b-4-4-4-4-4-4-4-4-4-4-4-4-4-4-------1-2-4------------------------------11b-11-11-11-11-11~-------|
D|--------------------------------2/4~4--------------------------------------------------------------|
A|---------------------------------------------------------------------------------------------------|
E|---------------------------------------------------------------------------------------------------|

e|------21-------21----21h22p21-17-21-21~17-21~17-21-17~17-|
B|17-17----17-17----17-------------------------------------|
G|---------------------------------------------------------|
D|---------------------------------------------------------|
A|---------------------------------------------------------|
E|---------------------------------------------------------|

e|-14b-17\14-17-17~14-12-12-9-12-12~9-7-8~7p5h7-8~7p5-|
B|----------------------------------------------------|
G|----------------------------------------------------|
D|----------------------------------------------------|
A|----------------------------------------------------|
E|----------------------------------------------------|
outro riff
e|-----------------------------------------------------------------|
B|-----------------------------------------------------------------|
G|-----------------------------------------------------------------|
D|-------------7-7-7-7-7-7-7-7-7---------------2-2-2-2-2-2-2-2-2-2-|
A|-4-4-4-2-2-2-5-5-5-5-5-5-5-5-5---4-4-4-2-2-2-0-0-0-0-0-0-0-0-0-0-|
E|-2-2-2-0-0-0-------------------0-2-2-2-0-0-0---------------------|
   * * * * * * * * * * * * * * * * * * * * * * * * * * * * * * * *
outro solo
e|-14~-14/16-17-16h17p16p14-16p14----14-----14b-----------------------------14-17p16p14-16-16p14----14-----|
B|--------------------------------17----17b~-------12bp10-------10b------------------------------17----17b-|
G|----------------------------------------------14~-------13-11-----11p9-----------------------------------|
D|-----------------------------------------------------------------------11--------------------------------|
A|---------------------------------------------------------------------------------------------------------|
E|---------------------------------------------------------------------------------------------------------|

e|-14h16p14----14-----17-17-----16-16-----14-14-----12-12----------------------------------------------|
B|----------17----17b-------------------------------------------------------------2------------10-9----|
G|-------------------------14-14-----13-13-----11-11-----9-9-11~----1-2-4-2h4p2-1---4-2-1/11-11-----11-|
D|---------------------------------------------------------------4~4-----------------------------------|
A|-----------------------------------------------------------------------------------------------------|
E|-----------------------------------------------------------------------------------------------------|

e|--------12b~12-14p12-------------------------------------17p16p14h16-17p16p14h16-16p14------|
B|-12b-10--------------------14-14-12-12-10-10-12b-10-12b~-------------------------------17b~-|
G|--------------------------------------------------------------------------------------------|
D|---------------------11-11------------------------------------------------------------------|
A|--------------------------------------------------------------------------------------------|
E|--------------------------------------------------------------------------------------------|

e|-14-----------14--------14-----14-----14-----14---------14---------14-----14-|
B|----17-14--------17-17b~---17b~---17b~---17b~---17b~17b~---17b~17b~---17b~---|
G|----------16b----------------------------------------------------------------|
D|-----------------------------------------------------------------------------|
A|-----------------------------------------------------------------------------|
E|-----------------------------------------------------------------------------|

************************************

| /   slide up
| \   slide down
| h   hammer-on
| p   pull-off
| ~   vibrato
| +   harmonic
| x   Mute note
| b   Bend
| pb  Pre-bend
| br  Bend release
| pbr Pre-bend release
| brb Bend release bend
  
************************************
Добавлено: 06.11.2015
Другие материалы по этой песне:

Страница создана 05.03.2012
http://primanota.ru/pantera/well-meet-again-chords.htm
Привет, Гость.
Предлагаем пройти революционный курс по гитаре.
Подарок от PrimaNota.Ru, забирай!