PrimaNota.ru - самый крупный в мире бесплатный архив песенных текстов, аккордов, табулатур и нот


Pantera - Rise - аккорды и текст, таба, бас-таба, видео

Регистрация Запомнить меня
Войти через:  Facebook Google Twitter Vk Yandex Mail.ru

Pantera - Rise - аккорды и текст, таба, бас-таба, видео

Печатать
Просмотров: 385
Авторы: Pantera

Rise
Pantera
Ok Here's 2 riffs that I know are right so...

riff a                   Play twice
--------------------------------------------------------------------
--------------------------------------------------------------------
--------------------------------------------------------------------
-----10----10-----10-----10-----------------------------------------
-----8------8------8------8-----------------------------------------
-000----000----000----000-------------------------------------------
riff a             play 2 times
--------------------------------------------------------------------
--------------------------------------------------------------------
--------------------------------------------------------------------
--------------------------------------------------------------------
-----5------5------5------5-----------------------------------------
-333-4--333-4--333-4--333-4-----------------------------------------
riff a               play 2 times
--------------------------------------------------------------------
--------------------------------------------------------------------
--------------------------------------------------------------------
-----7------7------7------7-----------------------------------------
-----5------5------5------5-----------------------------------------
-555----555----555----555-------------------------------------------
riff a
--------------------------------------------------------------------
--------------------------------------------------------------------
--------------------------------------------------------------------
--------------------------------------------------------------------
-----9------9------9------9-----9-9-9-9---9----x-------------------
-777 7--777-7--777-7--777-7---777-8-7-8---7----x-------------------
Riff B
--------------------------------------------------------------------
--------------------------------------------------------------------
--------------------------------------------------------------------
----x-x-x-----------x-x-x-----------x-x-x---------------------------
-5--x-x-x--3---3/5--x-x-x---3--3/5--x-x-x-3---3/5------6------------
-3--x-x-x--1---1/3--x-x-x---1--1/3--x-x-x-1---1/3------4------------
Of anyone has any idea of the chord he uses during the verses,
let me know, closest thing I could come up with is this
--------------------------------------------------------------------
--------------------------------------------------------------------
--------------------------------------------------------------------
-444--4--444---444---444--4--444--444--2-2--5---2--2--5---2---2--5--
-222--2--222---222---222--2--222--222--2-2--5---2--2--5---2---2--5--
-222--2--222---222---222--2--222--222--0-0--3---0--0--3---0---0--3--
Добавлено: 15.11.2013
Другие материалы по этой песне:

Страница создана 15.03.2012
http://primanota.ru/pantera/rise-chords.htm
Привет, Гость.
Предлагаем пройти революционный курс по гитаре.
Подарок от PrimaNota.Ru, забирай!