PrimaNota.ru - самый крупный в мире бесплатный архив песенных текстов, аккордов, табулатур и нот


Pantera - Piss - текст песни, таба, видео

Регистрация Запомнить меня
Войти через:  Facebook Google Twitter Vk Yandex Mail.ru

Pantera - Piss - текст песни, таба, видео

Печатать
Просмотров: 544
Уроки эстрадного вокала в Санкт-Петербурге
piss


pantera


TRANSCRIBED BY RUDY GUZMAN


guzman_84@hotmail.com




                                               
e:-----|
B:-----|
G:-----|
D:-----|
A:-----|
D:-17\-|

                          x4
e:--------------------------|
B:--------------------------|
G:--------------------------|
D:--------------------------|
A:--0-1-2--5-2--0--1-2--5-2-|
D:--0-1-2--5-2--0--1-2--5-2-|

e:-------------|
B:-------------|
G:-------------|
D:-------------|
A:-------0---1-|
D:-0-2-1-0---1-|

e:------------------------------------------------------------------------|
B:----5-8p5--10p5-8p5----10bp8---10-8-------------------------------------|
G:-7b-----------------7--------9------9-7--------7---9---7----------------|
D:----------------------------------------9--7h9---9---9---9--------------|
A:-------------------------------------------------------------------0--1-|
D:------------------------------------------------------------1b~~~--0--1-|

                                                 pm......................
e:-----------------------------------------------------------------------------------|
B:----5-8p5--10p5-8p5----10bp8---10-8------------------------------------------------|
G:-7b-----------------7--------9------9-7--------------------------------------------|
D:----------------------------------------9--7h9-------------------------------------|
A:------------------------------------------------1-1-1-1-1-1-1-1-1-1-1-1--1-1-1-1-1-|
D:------------------------------------------------1-1-1-1-1-1-1-1-1-1-1-1--1-1-1-1-1-|


e:--------------------------------|
B:--------------------------------|
G:--------------------------------|
D:--------------------------------|
A:-0---------3----------3-3-3-----|
D:-0--3-5-6----6-5-3~~--3-3-3-1-0-|

e:--------------------------------|
B:--------------------------------|
G:--------------------------------|
D:--------------------------------|
A:-0---------3----------3-1-1---0-|
D:-0--3-5-6----6-5-3~~--3-1-1---0-|

   verse
e:--------------------------------|
B:--------------------------------|
G:--------------------------------|
D:--------------------------------|
A:-0---------3----------3-3-3-----|
D:-0--3-5-6----6-5-3~~--3-3-3-1-0-|

e:--------------------------------|
B:--------------------------------|
G:--------------------------------|
D:--------------------------------|
A:-0---------3----------3-1-1---0-|
D:-0--3-5-6----6-5-3~~--3-1-1---0-|

e:-----------------------------------|
B:-----------------------------------|
G:-----------------------------------|
D:-----------------------------------|
A:-8-8-8-8-8-8-8--8-8-8-8-8-8--7-6-5-|
D:-9-9-9-9-9-9-9--8-8-8-8-8-8--7-6-5-|

  chorus                   x3
e:---------------------------|
B:---------------------------|
G:---------------------------|
D:---------------------------|
A:--0-1-2--5-2--0--1-2--5--2-|
D:--0-1-2--5-2--0--1-2--5--2-|

e:-------------|
B:-------------|
G:-------------|
D:-------------|
A:-------0---1-|
D:-0-2-1-0---1-|

e:------------------------------------------------------------------------|
B:----5-8p5--10p5-8p5----10bp8---10-8-------------------------------------|
G:-7b-----------------7--------9------9-7--------7---9---7----------------|
D:----------------------------------------9--7h9---9---9---9--------------|
A:-------------------------------------------------------------------0--1-|
D:------------------------------------------------------------1b~~~--0--1-|

                                                 pm......................
e:-----------------------------------------------------------------------------------|
B:----5-8p5--10p5-8p5----10bp8---10-8------------------------------------------------|
G:-7b-----------------7--------9------9-7--------------------------------------------|
D:----------------------------------------9--7h9-------------------------------------|
A:------------------------------------------------1-1-1-1-1-1-1-1-1-1-1-1--1-1-1-1-1-|
D:------------------------------------------------1-1-1-1-1-1-1-1-1-1-1-1--1-1-1-1-1-|

e:--------------------------------|
B:--------------------------------|
G:--------------------------------|
D:--------------------------------|
A:-0---------3----------3-3-3-----|
D:-0--3-5-6----6-5-3~~--3-3-3-1-0-|

e:--------------------------------|
B:--------------------------------|
G:--------------------------------|
D:--------------------------------|
A:-0---------3----------3-1-1---0-|
D:-0--3-5-6----6-5-3~~--3-1-1---0-|

   verse
e:--------------------------------|
B:--------------------------------|
G:--------------------------------|
D:--------------------------------|
A:-0---------3----------3-3-3-----|
D:-0--3-5-6----6-5-3~~--3-3-3-1-0-|

e:--------------------------------|
B:--------------------------------|
G:--------------------------------|
D:--------------------------------|
A:-0---------3----------3-1-1---0-|
D:-0--3-5-6----6-5-3~~--3-1-1---0-|

e:-----------------------------------|
B:-----------------------------------|
G:-----------------------------------|
D:-----------------------------------|
A:-8-8-8-8-8-8-8--8-8-8-8-8-8--7-6-5-|
D:-9-9-9-9-9-9-9--8-8-8-8-8-8--7-6-5-|

  chorus                   x3
e:---------------------------|
B:---------------------------|
G:---------------------------|
D:---------------------------|
A:--0-1-2--5-2--0--1-2--5--2-|
D:--0-1-2--5-2--0--1-2--5--2-|

e:-------------|
B:-------------|
G:-------------|
D:-------------|
A:-------0---1-|
D:-0-2-1-0---1-|

   solo
e:----------------------------------------------|
B:--------------------------8---8b-8~~~/10-10bf-|
G:-------------------9p7-9----9-----------------|
D:----5---7-5--9p7-9----------------------------|
A:-/7---7---------------------------------------|
D:----------------------------------------------|

e:---------------------------------------------------|
B:--------------------------8---10~~~~-8h10p8-7~~~~~-|
G:-------------------9p7-9----9----------------------|
D:----5---7-5--9p7-9---------------------------------|
A:-/7---7--------------------------------------------|
D:---------------------------------------------------|

e:-------------------------------------------------------------------------|
B:---------------------------------------------------------------15--------|
G:---------------------------------------12-----12bf--12~~~-14bf----14b~~~-|
D:-----------------------------14-12-14-----14-----------------------------|
A:-------10----12-10--14-12-14---------------------------------------------|
D:-10/14----14-------------------------------------------------------------|

e:------------------------------------------------------------|
B:------------------------------------------------------------|
G:-------------------9AHbp7AH-----7ah--5ah-----5ahb-----------|
D:----5---7-5--9p7-9----------9ah----------7ah------5ah--7ahb-|
A:-/7---7-----------------------------------------------------|
D:------------------------------------------------------------|


e:-----------------------------------------------------|
B:-----------------------------------------------------|
G:-----------------------------------------------------|
D:-----------------------------------------------------|
A:-2-4-5--7--4-2--2h3-2-----2-4-5--7--4-------0------1-|
D:-2-4-5--7--4-2--------5---2-4-5--7--4--0-0--0--0-0-1-|

e:---------------------------------------------------------------|
B:---------------------------------------------------------------|
G:---------------------------------------------------------------|
D:---------------------------------------------------------------|
A:-2-4-5--7--4-2--2h3-2-----2-4-5--7--4-------5h7-----5h7------0-|
D:-2-4-5--7--4-2--------5---2-4-5--7--4--0-0--5h7-0-0-5h7-0-0--0-|

                           x3
e:---------------------------|
B:---------------------------|
G:---------------------------|
D:---------------------------|
A:--0-1-2--5-2--0--1-2--5--2-|
D:--0-1-2--5-2--0--1-2--5--2-|

e:-------------|
B:-------------|
G:-------------|
D:-------------|
A:-------0---1-|
D:-0-2-1-0---1-|

                                                                 x4
e:------------------------------------------------------------------------|
B:----5-8p5--10p5-8p5----10bp8---10-8-------------------------------------|
G:-7b-----------------7--------9------9-7--------7---9---7----------------|
D:----------------------------------------9--7h9---9---9---9--------------|
A:-------------------------------------------------------------------0--1-|
D:------------------------------------------------------------1b~~~--0--1-|

e:----------------------------------------------------------------------|
B:----5-8p5--10p5-8p5----10bp8---10-8----10bp8---10-8----10bp8---10p8---|
G:-7b-----------------7--------9------9--------9------9--------9------9-|
D:----------------------------------------------------------------------|
A:----------------------------------------------------------------------|
D:----------------------------------------------------------------------|

e:------------12b~~~--|
B:-10p8---10--15b~~~--|
G:------9-------------|
D:--------------------|
A:--------------------|
D:--------------------|


e:-----------------------------------------------------------------------12~~~-|
B:----5-8p5--10p5-8p5----10bp8---10-10--8--10bp8-------------------------------|
G:-7b-----------------7--------9-----------------9-7h9p7-----------------------|
D:-------------------------------------------------------9-7h9p7---------------|
A:---------------------------------------------------------------9-7h9p7-------|
D:-----------------------------------------------------------------------------|

e:----------------------------------|
B:----5-8p5--10p5-------------------|
G:-7b--------------7----7-7--7--7-7-|
D:-----------------7h8--8p7--8--8p7-|
A:----------------------------------|
D:----------------------------------|

e:----------------------------------|
B:----5-8p5--10p5--8p5--3-5-3-5b-3--|
G:-7b-------------------3-5-3-5b-3--|
D:----------------------------------|
A:----------------------------------|
D:----------------------------------|

e:--------------------------------------|
B:----5-8p5--10p5--8p5------------------|
G:-7b-------------------7b-7---7b-7~~~~-|
D:----------------------7b-7p5-7b-7~~~~-|
A:--------------------------------------|
D:--------------------------------------|

e:------------------------------|
B:----5-8p5--10p5--8p5----------|
G:-7b-------------------7ahb----|
D:----------------------------7-|
A:----------------------------0-|
D:------------------------------|

e:---------------------------|
B:---------------------------|
G:---------------------------|
D:---------------------------|
A:--0-1-2--5-2--0--1-2--5--2-|
D:--0-1-2--5-2--0--1-2--5--2-|

e:---------------------------|
B:---------------------------|
G:---------------------------|
D:---------------------------|
A:--0-1-2--5-2---------------|
D:--0-1-2--5-2--0-1-2--0-1-2-|

e:---------------------------|
B:---------------------------|
G:---------------------------|
D:---------------------------|
A:--0-1-2--5-2--0--1-2--5--2-|
D:--0-1-2--5-2--0--1-2--5--2-|

e:-------------------|
B:-------------------|
G:-------------------|
D:-------------------|
A:--0-1-2--5-2--0--2-|
D:--0-1-2--5-2--0--2-|




hillo son mex

12/04/12
Добавлено: 18.11.2013
Другие материалы по этой песне:

Страница создана 12.09.2013
http://primanota.ru/pantera/piss-chords.htm
Привет, Гость.
Предлагаем пройти революционный курс по гитаре.
Подарок от PrimaNota.Ru, забирай!