PrimaNota.ru - самый крупный в мире бесплатный архив песенных текстов, аккордов, табулатур и нот


Panteon Rococo - No Te C... - таба, видео

Регистрация Запомнить меня
Войти через:  Facebook Google Twitter Vk Yandex Mail.ru

Panteon Rococo - No Te C... - таба, видео

Печатать
Просмотров: 71
Новый альбом группы 'Черный Кузнец' по культовому сериалу 'Сверхъестественное'!
Este es el solo inicial de la rola, si tienen alguna corrección
mandenla a mi mail porfavor

e----------------------------------------------------------
b----------------------------------------------------------
g----------------------------------------------------------
d----------------------------------------------------------
a----------------------------------------------------------
e-8-8-8-8-8-8-8-8-10-10-10-10-10-10-10-10-11-11-11-11-11-11


e--------------------------------------------------------
b--------------------------------------------------------
g--------------------------------------------------------
d--------------------------------------------------------
a-------8-8-8-8-8-8-8-8-10-10-10-8-8-8--------------10-10
e-11-11--------------------------------11-11-11-8-8------


e----------------------------------------------------------
b----------------------------------------------------------
g----------------------------------------------------------
d---------------------------------------------8-8----------
a-10-8-8-8----------------------10-10---10-10-----11-11-8-8
b---------11-11-11-8-8---8-8-8-------8---------------------


e--------------------------------------------------------
b--------------------------------------------------------
g--------------------------------------------------------
d-----------------8-8------------------------------------
a---10-10---10-10-----11-11-8-8-------------------------
e-8-------8----------------------------------------------
Добавлено: 30.09.2014
Другие материалы по этой песне:
  • Аккорды и текст

Страница создана 30.09.2014
http://primanota.ru/panteon-rococo/no-te-c-chords.htm
Привет, Гость.
Предлагаем пройти революционный курс по гитаре.
Подарок от PrimaNota.Ru, забирай!