PrimaNota.ru - самый крупный в мире бесплатный архив песенных текстов, аккордов, табулатур и нот


Panteon Rococo - Arréglame El Alma - таба, бас-таба, видео

Регистрация Запомнить меня
Войти через:  Facebook Google Twitter Vk Yandex Mail.ru

Panteon Rococo - Arréglame El Alma - таба, бас-таба, видео

Печатать
Просмотров: 45
Уроки эстрадного вокала в Санкт-Петербурге
Qe tal Pues Les Traigo esta Cancion de Panteon Rococo
La Cual aun no ahi tabs ni nada
la saque a vista y oido y espero les agrade

By:Aliiink

Acordes:
E     Bmaj  Am    Cmaj   C#maj  Dmaj
e|7   e|7   e|5   e|8    e|9    e|10
b|8   b|7   b|5   b|8    b|9    b|10
g|9   g|8   g|5   g|9    g|10   g|11
D|9   D|9   D|7   D|10   D|11   D|12
E|7   E|9   E|7   E|10   E|11   E|12
A|7   A|7   A|7   A|8    A|9    A|10

Aqui Comienza La Cancion:

Manda a La Casa a Los Niños Que voy a Volver Jalao
(este Intro Lleva los Punteos Rapidos)
e|---------------------------------------------------------------------------
b|---------------------------------------------------------------------------
g|---------------------------------------------------------------------------
D|---------------------------------------------------------------------------
A|-------------77777-8-7-----------------------------------------------------
E|-77777777777----------10-8-77777777777777-10,10,10,10,10-99999999-88888888-

e---------------------------------------------------------------------|
b---------------------------------------------------------------------|
g---------------------------------------------------------------------|
D---------------------------------------------------------------------|
A-77777-8-7-----------------------------------------------------------|
E----------10-8-8/10,10,10,10-7777777/8888888/10,10,10,10/12,12,12,12-|

Aqui LLeva el Ritmo Con Ska

Em,Bmaj,Em,Bmaj

  Em                                            Bmaj   Am
Quisiera que esta noche tu vinieras me dieras tu mano
  Em                                          Bmaj   Am
necesito que hoy vengas y que sientas mi corazon
Em                      Bmaj              Am
ven siente como palpita como se muere por tu calor
Em                      Bmaj              Am
ven siente como suspira como se muere por este dolor

Riff 1:
e|--------------------------------------------------------------|
b|--------------------------------------------------------------|
g|-9/16-16-16/14-14-14/12-12-12/14--7/12-12-12/11-11-11/9-9-9-8-|
D|--------------------------------------------------------------|
A|--------------------------------------------------------------|
E|--------------------------------------------------------------|

         Riff 1
Ven vamos ven y arreglame el alma
         Riff 1
ven vamos ven y arreglame el corazon

(En Los Acordes qe los Divide el / Se Desliza de Un Acorde a Otro)

Cmaj                                     Bmaj/Cmaj
quiero que vengas y desnudes este cuerpo
Cmaj                                   C#maj/Dmaj
quiero que vengas y desnudes esta alma
Dmaj                          C#maj/Dmaj
tenerte aqui entre mis brazos
Dmaj
verte de nuevo y hacerte el amor

Riff 2:
e|--------------------|
b|--------------------|
g|--9--12-------------|
D|--9--12--9--12--10--|
A|--7--10--9--12--10--|
E|---------7--10--8---|

Riff 2           Cmaj     Bmaj/Cmaj Cmaj          Bmaj/Cmaj Cmaj
Ho,ho,ho,ho,ho¡¡ Necesito tu calor yo me muero por tu amor baby
Riff 2           Cmaj     Bmaj/Cmaj Cmaj          Bmaj/Cmaj Cmaj
Ho,ho,ho,ho,ho¡¡ necesito tu calor yo me muero por tu amor nena
Riff 2           Cmaj     Bmaj/Cmaj Cmaj          Bmaj/Cmaj Cmaj
Ho,ho,ho,ho,ho¡¡ Necesito tu calor yo me muero por tu amor baby
Riff 2       Cmaj      Bmaj/Cmaj Cmaj          Bmaj/Cmaj Cmaj         Riff 3
Ho, Ho, ho¡¡ Necesito tu calor yo me muero por tu amor necesito tu calor

Riff 3
e|------------------------------|
b|------------------------------|
g|--------------------------9/0-|
D|-2--4--5--7--5--7--9--12--9/0-|
A|-2--4--5--7--5--7--9--12--7/0-|
E|-0--2--3--5--3--5--7--10------|

Em,Bmaj,Em,Bmaj

Em                                                 Bmaj   Am
Si vieras no comprendo tanto tiempo de andar de aperrado
Em                                          Bmaj Am
no puedo entender como es que no te dejo de amar No no no
Em                        Bmaj                  Am
una sarta de arrebatos que siempre acaban con mi razon
Em                         Bmaj                 Am
adrenalina bien pura es una dulce y terrible adiccion

Riff 1
Ven vamos ven y arreglame el alma
Riff1
ven vamos ven y arreglame el corazon

Cmaj                                Bmaj/Cmaj
yo Necesito que Desnudes este cuerpo
Cmaj                              C#maj/Dmaj
Yo Necesito que desnudes esta alma
Dmaj                          C#maj/Dmaj
tenerte aqui entre mis brazos
Dmaj
verte de nuevo y hacerte el amor


Riff 2           Cmaj     Bmaj/Cmaj Cmaj          Bmaj/Cmaj Cmaj
Ho,ho,ho,ho,ho¡¡ Necesito tu calor yo me muero por tu amor baby
Riff 2           Cmaj     Bmaj/Cmaj Cmaj          Bmaj/Cmaj Cmaj
Ho,ho,ho,ho,ho¡¡ necesito tu calor yo me muero por tu amor nena
Riff 2           Cmaj     Bmaj/Cmaj Cmaj          Bmaj/Cmaj Cmaj
Ho,ho,ho,ho,ho¡¡ Necesito tu calor yo me muero por tu amor baby
Riff 2       Cmaj      Bmaj/Cmaj Cmaj          Bmaj/Cmaj Cmaj        Riff 3
Ho, Ho, ho¡¡ Necesito tu calor yo me muero por tu amor necesito tu calor


(Aqui El Intro Del  Punteo Rapido)

Esto que yo siento esto que presiento que no me deja vivir
esto que me crece esto que me excita no ne deja no me deja existir
me has enseñado tu

Riff 2           Cmaj     Bmaj/Cmaj Cmaj          Bmaj/Cmaj Cmaj
Ho,ho,ho,ho,ho¡¡ Necesito tu calor yo me muero por tu amor baby
Riff 2           Cmaj     Bmaj/Cmaj Cmaj          Bmaj/Cmaj Cmaj
Ho,ho,ho,ho,ho¡¡ necesito tu calor yo me muero por tu amor nena
Riff 2           Cmaj     Bmaj/Cmaj Cmaj          Bmaj/Cmaj Cmaj
Ho,ho,ho,ho,ho¡¡ Necesito tu calor yo me muero por tu amor baby
Riff 2       Cmaj      Bmaj/Cmaj Cmaj          Bmaj/Cmaj Cmaj
Ho, Ho, ho¡¡ Necesito tu calor yo me muero por tu amor necesito tu calor
Riff 2
Ho,ho,ho,ho,ho¡¡
Добавлено: 29.07.2014
Другие материалы по этой песне:
  • Аккорды и текст

Страница создана 29.07.2014
http://primanota.ru/panteon-rococo/arreglame-el-alma-chords.htm
Привет, Гость.
Предлагаем пройти революционный курс по гитаре.
Подарок от PrimaNota.Ru, забирай!