PrimaNota.ru - самый крупный в мире бесплатный архив песенных текстов, аккордов, табулатур и нот


Panik - Unsere Zeit - текст песни, таба, видео

Регистрация Запомнить меня
Войти через:  Facebook Google Twitter Vk Yandex Mail.ru

Panik - Unsere Zeit - текст песни, таба, видео

Печатать
Просмотров: 301
                             Unsere Zeit by Panik
-------------------------------------------------------------------------------
Tabbed by: Unsaidxpl
Email: unsaidxpl@bk.ru

Tuning: Drop C

Riff 1

D|---------------------------------------------------------------|
A|---------------------------------------------------------------|
F|---------------------------------------------------------------|
C|2---2-0-2-3-2---2---2-0-3-0-3-0-2---2-0-2-3-2---2---2-0-5-5-4-4| x2
G|2---2-0-2-3-2---2---2-0-3-0-3-0-2---2-0-2-3-2---2---2-0--------|
C|2---2-0-2-3-2---2---2-0-3-0-3-0-2---2-0-2-3-2---2---2-0--------|

Pre-Chorus

D|--------------------------------|
A|--------------------------------|
F|--------------------------------|
C|8-------10-------5-------2-0-2-3|
G|8-------10-------5-------2-0-2-3|
C|8-------10-------5-------2-0-2-3|

Chorus

D|--------------------------------------------------------------------------|
A|--------------------------------------------------------------------------|
F|--------------------------------------------------------------------------|
C|2-2-2-2-2-2-2-2-10-10-10-10-10-10-10-10-10-5-5-5-5-5-5-5-5-5-5-5-7-7-2-2-5|
G|2-2-2-2-2-2-2-2-10-10-10-10-10-10-10-10-10-5-5-5-5-5-5-5-5-5-5-5-7-7-2-2-5|
C|2-2-2-2-2-2-2-2-10-10-10-10-10-10-10-10-10-5-5-5-5-5-5-5-5-5-5-5-7-7-2-2-5|

Bridge
                          
D|---------------------------------------------------------------|
A|---------------------------------------------------------------|
F|---------------------------------------------------------------|
C|8-----8-8-------5-----5-5-------0-----0-0-------0-----0-0------|
G|8-----8-8-------5-----5-5-------0-----0-0-------0-----0-0------|
C|8-----8-8-------5-----5-5-------0-----0-0-------0-----0-0------|

D|---------------------------------------------------------------|
A|---------------------------------------------------------------|
F|---------------------------------------------------------------|
C|8-----8-8-------5-----5-5-------0-----0-0-------2---2-0-2-3-2--|
G|8-----8-8-------5-----5-5-------0-----0-0-------2---2-0-2-3-2--|
C|8-----8-8-------5-----5-5-------0-----0-0-------2---2-0-2-3-2--|

That's all
===============================================================================
Добавлено: 12.03.2012
Другие материалы по этой песне:
  • Аккорды и текст

Страница создана 12.03.2012
http://primanota.ru/panik/unsere-zeit-chords.htm
Привет, Гость.
Предлагаем пройти революционный курс по гитаре.
Подарок от PrimaNota.Ru, забирай!