PrimaNota.ru - самый крупный в мире бесплатный архив песенных текстов, аккордов, табулатур и нот


Panik - Bevor Du Gehst - текст песни, таба, видео

Регистрация Запомнить меня
Войти через:  Facebook Google Twitter Vk Yandex Mail.ru

Panik - Bevor Du Gehst - текст песни, таба, видео

Печатать
Просмотров: 380
Standard Tuning
E A D G H e

intro:
E ----------------------------------------------------------------|
H ----------------------------------------------------------------|
G --5---5---5---5--5--5--5----------------------------------------|
D --5---5---5---5--5--5--5-----0---0---0--------------------------|
A --3---3---3---3--3--3--3-----2---2---2--2-3-2-0-2---------------|
E -----------------------------3---3---3--------------------------|

1. Strophe

  Es ist schon spät kannst du noch - bleiben?
e ----------------------------------------------------------------|
H ----------------------------------------------------------------|
G --5---5---5---5--5--5--5----------------------------------------|
D --5---5---5---5--5--5--5-----0---0---0--------------------------|
A --3---3---3---3--3--3--3-----2---2---2--2-3-2-0-2---------------|
E -----------------------------3---3---3--------------------------|

  Ich mag noch nicht alleine - sein
e ----------------------------------------------------------------|
H ----------------------------------------------------------------|
G --5---5---5---5--5--5--5----------------------------------------|
D --5---5---5---5--5--5--5-----0---0---0--------------------------|
A --3---3---3---3--3--3--3-----2---2---2--2-3-2-0-2---------------|
E -----------------------------3---3---3--------------------------|

  Ich kann nicht reden und will nicht - Schweigen
e ----------------------------------------------------------------|
H ----------------------------------------------------------------|
G --5---5---5---5--5--5--5----------------------------------------|
D --5---5---5---5--5--5--5-----0---0---0--------------------------|
A --3---3---3---3--3--3--3-----2---2---2--2-3-2-0-2---------------|
E -----------------------------3---3---3--------------------------|

  Du atmest schwer und bist - bereit
e ----------------------------------------------------------------|
H ----------------------------------------------------------------|
G --5---5---5---5--5--5--5-----------------------2-2--------------|
D --5---5---5---5--5--5--5-----0---0---0--0-0----0-0--------------|
A --3---3---3---3--3--3--3-----2---2---2--2-2----0-0--------------|
E -----------------------------3---3---3--3-3----0-0--------------|

     Leider - Habe ich mich nie - getraut
e --------------------------------3--3--3--3--3-------------------|
H ------------1--1--1--1--1--1----0--0--0--0--0-------------------|
G ------------0--0--0--0--0--0----0--0--0--0--0--2-2--------------|
D --2--2--2---2--2--2--2--2--2----0--0--0--0--0--0-0--------------|
A --2--2--2---3--3--3--3--3--3----2--2--2--2--2--0-0--------------|
E --0--0--0---0--0--0--0--0--0----3--3--3--3--3--0-0--------------|

      Dir - zu sagen was du für mich - bist
e --------------------------------3--3--3--3--3-------------------|
H ------------1--1--1--1--1--1----0--0--0--0--0-------------------|
G ------------0--0--0--0--0--0----0--0--0--0--0--2-2--------------|
D --2--2--2---2--2--2--2--2--2----0--0--0--0--0--0-0--------------|
A --2--2--2---3--3--3--3--3--3----2--2--2--2--2--0-0--------------|
E --0--0--0---0--0--0--0--0--0----3--3--3--3--3--0-0--------------|

  Bevor du gehst, will ich das du weißt das ich dich
e --------------------------------3--3--3--3--3-------------------|
H ------------1--1--1--1--1--1----0--0--0--0--0-------------------|
G ------------0--0--0--0--0--0----0--0--0--0--0--2-2--------------|
D --2--2--2---2--2--2--2--2--2----0--0--0--0--0--0-0--------------|
A --2--2--2---3--3--3--3--3--3----2--2--2--2--2--0-0--------------|
E --0--0--0---0--0--0--0--0--0----3--3--3--3--3--0-0--------------|

  mag, Bleib doch noch ein bischen hier
e --------------------------------3--3--3--3--3-------------------|
H ------------1--1--1--1--1--1----0--0--0--0--0-------------------|
G ------------0--0--0--0--0--0----0--0--0--0--0--2-2--------------|
D --2--2--2---2--2--2--2--2--2----0--0--0--0--0--0-0--------------|
A --2--2--2---3--3--3--3--3--3----2--2--2--2--2--0-0--------------|
E --0--0--0---0--0--0--0--0--0----3--3--3--3--3--0-0--------------|

  Bevor du gehst, will ich das du mich verstehst
e --------------------------------3--3--3--3--3-------------------|
H ------------1--1--1--1--1--1----0--0--0--0--0-------------------|
G ------------0--0--0--0--0--0----0--0--0--0--0--2-2--------------|
D --2--2--2---2--2--2--2--2--2----0--0--0--0--0--0-0--------------|
A --2--2--2---3--3--3--3--3--3----2--2--2--2--2--0-0--------------|
E --0--0--0---0--0--0--0--0--0----3--3--3--3--3--0-0--------------|

  Bleib doch bitte n bisschen hier
e --------------------------------3--3--3--3--3-------------------|
H ------------1--1--1--1--1--1----0--0--0--0--0-------------------|
G ------------0--0--0--0--0--0----0--0--0--0--0--2-2--------------|
D --2--2--2---2--2--2--2--2--2----0--0--0--0--0--0-0--------------|
A --2--2--2---3--3--3--3--3--3----2--2--2--2--2--0-0--------------|
E --0--0--0---0--0--0--0--0--0----3--3--3--3--3--0-0--------------|

  Ich hatte immer viele - fehler
e ----------------------------------------------------------------|
H ----------------------------------------------------------------|
G --5---5---5---5--5--5--5----------------------------------------|
D --5---5---5---5--5--5--5-----0---0---0--------------------------|
A --3---3---3---3--3--3--3-----2---2---2--2-3-2-0-2---------------|
E -----------------------------3---3---3--------------------------|

  Du hast sie mir täglich - gezeigt
e ----------------------------------------------------------------|
H ----------------------------------------------------------------|
G --5---5---5---5--5--5--5----------------------------------------|
D --5---5---5---5--5--5--5-----0---0---0--------------------------|
A --3---3---3---3--3--3--3-----2---2---2--2-3-2-0-2---------------|
E -----------------------------3---3---3--------------------------|

  Wir haben uns niemals - verstanden
e ----------------------------------------------------------------|
H ----------------------------------------------------------------|
G --5---5---5---5--5--5--5----------------------------------------|
D --5---5---5---5--5--5--5-----0---0---0--------------------------|
A --3---3---3---3--3--3--3-----2---2---2--2-3-2-0-2---------------|
E -----------------------------3---3---3--------------------------|

  und so verging die - zeit
e ----------------------------------------------------------------|
H ----------------------------------------------------------------|
G --5---5---5---5--5--5--5----------------2-2-2-------------------|
D --5---5---5---5--5--5--5-----0---0---0--0-0-0-------------------|
A --3---3---3---3--3--3--3-----2---2---2--0-0-0-------------------|
E -----------------------------3---3---3--0-0-0-------------------|

  Heute stehe ich mitten im leben
e --------------------------------3--3--3--3--3-------------------|
H ------------1--1--1--1--1--1----0--0--0--0--0-------------------|
G ------------0--0--0--0--0--0----0--0--0--0--0--2-2--------------|
D --2--2--2---2--2--2--2--2--2----0--0--0--0--0--0-0--------------|
A --2--2--2---3--3--3--3--3--3----2--2--2--2--2--0-0--------------|
E --0--0--0---0--0--0--0--0--0----3--3--3--3--3--0-0--------------|

  und du liegst vor dem tod
e --------------------------------3--3--3--3--3-------------------|
H ------------1--1--1--1--1--1----0--0--0--0--0-------------------|
G ------------0--0--0--0--0--0----0--0--0--0--0--2-2--------------|
D --2--2--2---2--2--2--2--2--2----0--0--0--0--0--0-0--------------|
A --2--2--2---3--3--3--3--3--3----2--2--2--2--2--0-0--------------|
E --0--0--0---0--0--0--0--0--0----3--3--3--3--3--0-0--------------|

  Bevor du gehst, will ich das du weißt das ich dich
e --------------------------------3--3--3--3--3-------------------|
H ------------1--1--1--1--1--1----0--0--0--0--0-------------------|
G ------------0--0--0--0--0--0----0--0--0--0--0--2-2--------------|
D --2--2--2---2--2--2--2--2--2----0--0--0--0--0--0-0--------------|
A --2--2--2---3--3--3--3--3--3----2--2--2--2--2--0-0--------------|
E --0--0--0---0--0--0--0--0--0----3--3--3--3--3--0-0--------------|

  mag, Bleib doch noch ein bischen hier
e --------------------------------3--3--3--3--3-------------------|
H ------------1--1--1--1--1--1----0--0--0--0--0-------------------|
G ------------0--0--0--0--0--0----0--0--0--0--0--2-2--------------|
D --2--2--2---2--2--2--2--2--2----0--0--0--0--0--0-0--------------|
A --2--2--2---3--3--3--3--3--3----2--2--2--2--2--0-0--------------|
E --0--0--0---0--0--0--0--0--0----3--3--3--3--3--0-0--------------|

  Bevor du gehst, will ich das du mich verstehst
e --------------------------------3--3--3--3--3-------------------|
H ------------1--1--1--1--1--1----0--0--0--0--0-------------------|
G ------------0--0--0--0--0--0----0--0--0--0--0--2-2--------------|
D --2--2--2---2--2--2--2--2--2----0--0--0--0--0--0-0--------------|
A --2--2--2---3--3--3--3--3--3----2--2--2--2--2--0-0--------------|
E --0--0--0---0--0--0--0--0--0----3--3--3--3--3--0-0--------------|

  Bleib doch bitte n bisschen hier
e --------------------------------3--3--3--3--3-------------------|
H ------------1--1--1--1--1--1----0--0--0--0--0-------------------|
G ------------0--0--0--0--0--0----0--0--0--0--0--2-2--------------|
D --2--2--2---2--2--2--2--2--2----0--0--0--0--0--0-0--------------|
A --2--2--2---3--3--3--3--3--3----2--2--2--2--2--0-0--------------|
E --0--0--0---0--0--0--0--0--0----3--3--3--3--3--0-0--------------|
Добавлено: 26.06.2013
Вам также может быть интересно:
Другие материалы по этой песне:
  • Аккорды и текст

Страница создана 26.06.2013
http://primanota.ru/panik/bevor-du-gehst-chords.htm
Привет, Гость.
Предлагаем пройти революционный курс по гитаре.
Подарок от PrimaNota.Ru, забирай!