PrimaNota.ru - самый крупный в мире бесплатный архив песенных текстов, аккордов, табулатур и нот


Panic Cell - Save Me - таба, видео

Регистрация Запомнить меня
Войти через:  Facebook Google Twitter Vk Yandex Mail.ru

Panic Cell - Save Me - таба, видео

Печатать
Просмотров: 94
Band ^_^panic Cell
Song ^_^Save Me
Album^_^Bitter Part of Me


Tuning – Drop C

/ Slide up
* Pinched harmonic
h Hammer on

Intro 1
-------------------------------------|
-------------------------------------|
-------------------------------------|
-------------------------------------|
--2/3-0-2/3-2/3-0--------------------|
--2/3-0-2/3-2/3-0--0-0-0-0-0---------|

----------------------------------|
----------------------------------|
----------------------------------|
----------------------------------|
--2/3-0-2/3-2/3-0-----------------|
--2/3-0-2/3-2/3-0--0-0-0-0-0-0-0--|

--------------------------------|
--------------------------------|
--------------------------------|
--------------------------------|
--2/3-0-2/3-2/3-0---------------|
--2/3-0-2/3-2/3-0--0-0-0-0-0----|

------------------------------|
------------------------------|
------------------------------|
-----------------------2*-----|
--2/3-0-2/3-1------6*---------|
--2/3-0-2/3–1-----------------|


Intro 2

--------------------------------------------------------------------|
--------------------------------------------------------------------|
--------------------------------------------------------------------|
--------------------------------------------------------------------|
-1-0------------3--5-------2-3--1-0-------------3--5-----2-3-6-0----|
-1-0—0-0-0----0-3--5---5-0-2-3--1-0---0-0-0---0-3--5-5-0-2-3-6-0----|
                 h                               h


--------------------------------------------------------------|
--------------------------------------------------------------|
--------------------------------------------------------------|
---------------h----------------------------------------------|
--------------3--5-------2-3-1---1-1-1---1-1---1-1-1-1-1-0-0--|
--0-0-0-----0-3--5---5-0-2-3-1---1-1-1---1-1---1-1-1-1-1-0-0--|
Добавлено: 10.05.2012
Другие материалы по этой песне:

Страница создана 10.05.2012
http://primanota.ru/panic-cell/save-me-chords.htm
Привет, Гость.
Предлагаем пройти революционный курс по гитаре.
Подарок от PrimaNota.Ru, забирай!