PrimaNota.ru - самый крупный в мире бесплатный архив песенных текстов, аккордов, табулатур и нот


Panic At The Disco - First Try - аккорды и текст, таба, видео

Регистрация Запомнить меня
Войти через:  Facebook Google Twitter Vk Yandex Mail.ru

Panic At The Disco - First Try - аккорды и текст, таба, видео

Печатать
Просмотров: 191
First Try
Panic At The Disco
- First try

Tuning standard
Capo 5

Intro: Am C F F | Am C F F | Am F F | Am F F |


Verse 1:
Am              C                F
 This town just wasn't made for two
             Am                   C               F
But when the streets they call my name, what can I do?
          Am                C                F
There's a place I'd like to visit there someday
            Am            C                 F
And if you decline my invitation, what can I say?
     Am  F
What can I say?
     Am  F
What can I say?

         Am              C              F  
When the corner light is dimmed upon the street
            Am              C                  F
And all the faces looked confused on those you meet
          Am                   C              F
Tell your friends that I'll be dead when you read this
            Am                C            F
Tell them I couldn't take the pain of loneliness
   Am  F
Of loneliness
   Am  F
Of loneliness


Chorus:
F    G       Am
I am feeling low
        C       G     F          G        Am             C        G
And I'm singing in my sleep when you're around, will you comfort me?
F     G        Am 
 I'll dream of you
        C     G        F        G   Am          
And the smile that you give, to me
     Am  F
You give to me
     Am  F      Am   F
You give to me

SOLO

e|---------------------------------------------3--0-------------------------------|
B|-1-----1--3--5---3--5--6--5--3--5--1------1--------3--5--6--5--3--5--3--1-------|
G|----2----------------------------------2----------------------------------------|
D|--------------------------------------------------------------------------------|
A|--------------------------------------------------------------------------------|
E|--------------------------------------------------------------------------------|

e|----------0------------------------------------------------------|
B|----1--3---------1--3--1--0--1-----------------------------------|
G|-2------------2--------------------------------------------------|
D|-----------------------------------------------------------------|
A|-----------------------------------------------------------------|
E|-----------------------------------------------------------------|

Verse 2:
         Am         C    F
It's the same thing everyday
           Am         C        F
Because we run out of things to say
          Am   Am  C  C   F
If you're gone and me not here
           Am                C             F
It kind of sheads a diffrent light on the whole year
   Am  F
On the whole year
   Am  F        
On the whole year


Chorus:
F    G       Am
I am feeling low
        C       G     F          G        Am             C        G
And I'm singing in my sleep when you're around, will you comfort me?
F     G        Am 
 I'll dream of you
        C     G        F        G   Am          
And the smile that you give, to me
     Am  F
You give to me
     Am  F    
You give to me
     Am  F    C
You give to - me
Добавлено: 02.03.2016
Другие материалы по этой песне:

Страница создана 29.07.2013
http://primanota.ru/panic-at-the-disco/first-try-chords.htm
Привет, Гость.
Предлагаем пройти революционный курс по гитаре.
Подарок от PrimaNota.Ru, забирай!