PrimaNota.ru - самый крупный в мире бесплатный архив песенных текстов, аккордов, табулатур и нот


Pandemonium - Did You Love Me - таба, видео

Регистрация Запомнить меня
Войти через:  Facebook Google Twitter Vk Yandex Mail.ru

Pandemonium - Did You Love Me - таба, видео

Печатать
Просмотров: 67
Song: "Did You Love Me"

Artist: Pandemonium

Tab By: Mark Richcreek

-First Guitar-

Intro/ Verse:

e -12-17-12-15-12-13-12-15

Repeat this from 4 measures into the song until chorus and all other
verses

Chorus:

e ---------------------------------------------

b ---------------------------------------------

g -6-6--4-4--2-2--4---6-6--4-4--2-2--4--

d -7-7--5-5--3-3--5---7-7--5-5--3-3--5--

a -7-7--5-5--3-3--5---7-7--5-5--3-3--5--

e -5-5--3-3--1-1--3---5-5--3-3--1-1--3--

Repeat this riff 8 times then wait 2 measures then go into the verse
again

The solo changes a lot but always starts out the same so here^Òs the
beginning

Solo:

e ^Ö17-17-15--15-15-13-12-----------------------------------

b ------------------------------13-12-12h13-12---------------

g --------------------------------------------------14--14-14^×

and then off into some improv. stuff and what not

well that^Òs about it, so there ya have it! Yay! Play away


________________________________________________________________________________
     
Добавлено: 31.07.2013
Вам также может быть интересно:
Другие материалы по этой песне:
  • Аккорды и текст

Страница создана 31.07.2013
http://primanota.ru/pandemonium/did-you-love-me-chords.htm
Привет, Гость.
Предлагаем пройти революционный курс по гитаре.
Подарок от PrimaNota.Ru, забирай!