PrimaNota.ru - самый крупный в мире бесплатный архив песенных текстов, аккордов, табулатур и нот


Panda - Un Tipo De Indulgencia - таба, видео

Регистрация Запомнить меня
Войти через:  Facebook Google Twitter Vk Yandex Mail.ru

Panda - Un Tipo De Indulgencia - таба, видео

Печатать
Просмотров: 108
PXNDX---UN TIPO DE INDULGENCIA / POETICS (acto 2/track 6)


hice 2 tipos de solo para guitarra 1 (picked y taping)


G1 = guitarra 1
G2 = guitarra 2

*//intro
G1
|-------8-11--8----------8----|--------8-----------------|
|-9--11----------11-9-11---11-|----8-9----9--8---------8-|
|-----------------------------|-9--------------10-8-10---|
|-----------------------------|--------------------------|
|-----------------------------|--------------------------|
|-----------------------------|--------------------------|x2

G2 (volumen bajo)
|-------------------------------------|
|-------------------------------------|
|-------------------------------------|
|-99999999-55555555-77777777-33333333-|
|-99999999-55555555-77777777-33333333-|
|-77777777-33333333-55555555-11111111-|x2

*//verso (no se hace nada)

*//break (salud, de nuestra...)
G1 y G2
|----------|
|----------|
|----------|
|-7------9-|
|-7------9-|
|-5------7-|

*//coro (y recuerda que...)
G1
|---------------------------------|-----------------------------------|
|-8-9-8-9-8-9-8-9-8-9-8-9-8-9-8-9-|-8-9-11-8-9-11-8-9-11-8-9-11-8-9-11|
|---------------------------------|-----------------------------------|
|---------------------------------|-----------------------------------|
|---------------------------------|-----------------------------------|
|---------------------------------|-----------------------------------|x4

G2
|----------------------------------------------------------|
|----------------------------------------------------------|
|------------------1010101010101010-8888888888888888888888-|
|-1111111111111111-1010101010101010-8888888888888888888888-|
|-1111111111111111--8-8-8-8-8-8-8-8-6666666666666666666666-|
|--9-9-9-9-9-9-9-9-----------------------------------------|X4

*//intro2
G1
|-------8-11--8----------8----|--------8-----------------|
|-9--11----------11-9-11---11-|----8-9----9--8---------8-|
|-----------------------------|-9--------------10-8-10---|
|-----------------------------|--------------------------|
|-----------------------------|--------------------------|
|-----------------------------|--------------------------|x2

G2 (volumen bajo)
|-------------------------------------|
|-------------------------------------|
|-------------------------------------|
|-99999999-55555555-77777777-33333333-|
|-99999999-55555555-77777777-33333333-|
|-77777777-33333333-55555555-11111111-|x2

*//verso (quiero ya tirar...) 
G1 y G2
|-----------------|
|-----------------|
|-----------------|
|-9--x9--x9--x999-|
|-9--x9--x9--x999-|
|-7--x7--x7--x777-|x4

*//break (esta voz, que escucho...)
G1 y G2
|----------|
|----------|
|----------|
|-7------9-|
|-7------9-|
|-5------7-|

*//coro (y recuerda que...)
G1
|---------------------------------|-----------------------------------|
|-8-9-8-9-8-9-8-9-8-9-8-9-8-9-8-9-|-8-9-11-8-9-11-8-9-11-8-9-11-8-9-11|
|---------------------------------|-----------------------------------|
|---------------------------------|-----------------------------------|
|---------------------------------|-----------------------------------|
|---------------------------------|-----------------------------------|x4

G2
|----------------------------------------------------------|
|----------------------------------------------------------|
|------------------1010101010101010-8888888888888888888888-|
|-1111111111111111-1010101010101010-8888888888888888888888-|
|-1111111111111111--8-8-8-8-8-8-8-8-6666666666666666666666-|
|--9-9-9-9-9-9-9-9-----------------------------------------|X4

*//solo
G1 x2 (tipo 1/picked)
|-----------------------------------------------------------------|
|---------------------------------1211109-1211109-1211109-1211109-|
|-1211109-1211109-1211109-1211109---------------------------------|
|-----------------------------------------------------------------|
|-----------------------------------------------------------------|
|-----------------------------------------------------------------|

|-------------------------------------------------------------|
|-10987-10987-10987-10987-15141312-15141312-15141312-15141312-|
|-------------------------------------------------------------|
|-------------------------------------------------------------|
|-------------------------------------------------------------|
|-------------------------------------------------------------|

G1 x2 (tipo 2/taping)
|-----------------------------------------------------------------|
|-----------------------------------------------------------------|
|-14p8h11p8-14p8h11p8-14p8h11p8-14p8h11p8-17p11h14p11-17p11h14p11-|
|-----------------------------------------------------------------|
|-----------------------------------------------------------------|
|-----------------------------------------------------------------|

|-----------------------------------------------------------------|
|-----------------------------------------------------------------|
|-17p11h14p11-17p11h14p11-15p9h12p9-15p9h12p9-15p9h12p9-15p9h12p9-|
|-----------------------------------------------------------------|
|-----------------------------------------------------------------|
|-----------------------------------------------------------------|

|--------------------------------------------------|
|-15p9h12p9-15p9h12p9-----------15p9h12p9-15p9h12p9|
|---------------------15p9h12p9--------------------|
|--------------------------------------------------|
|--------------------------------------------------|
|--------------------------------------------------|

G2 x4
|-----------------------------------------------------------------|
|-----------------------------------------------------------------|
|-----------------------------------------------------------------|
|-------------6-6-----6-6----10-10-----5-5-----8-8-----5-5-----8-8|
|-4-4-8-8-4-4-----8-8----8-8-------6-6-----6-6-----6-6-----6-6----|
|-----------------------------------------------------------------|

*//outro
G1
|-------8-11--8----------8----|--------8-----------------|
|-9--11----------11-9-11---11-|----8-9----9--8---------8-|
|-----------------------------|-9--------------10-8-10---|
|-----------------------------|--------------------------|
|-----------------------------|--------------------------|
|-----------------------------|--------------------------|x2

|--------------10-9~---|-11-10-8----------8~----|
|--------------------9~|---------11-10-11----11~|
|-10-8-----------------|------------------------|
|------10-8-10---------|------------------------|
|----------------------|------------------------|
|----------------------|------------------------|

|----------------16-15~----|-11-10-8------------------|
|-----------------------15~|---------11-10-11b~-8~-9~~|
|-13-12--------------------|--------------------------|
|-------14-12-14-----------|--------------------------|
|--------------------------|--------------------------|
|--------------------------|--------------------------|

G2 (volumen bajo)
|-------------------------------------|
|-------------------------------------|
|-------------------------------------|
|-99999999-55555555-77777777-33333333-|
|-99999999-55555555-77777777-33333333-|
|-77777777-33333333-55555555-11111111-|x4


[versos]
Tu y yo amor y odio
Y tu me tratas de un mal modo
Parece que estoy en un mal sueño
Pero en verdad eres mi dueño

Otra vez a cocinar
¿Quieres un pastel o un pay?
Tengo que aprender como mezclarlo con el placer

De chocolate o de limón cualquiera causa tentación
Muy importante el betún para el cuidado de salud
De nuestra salud

[coro]
Recuerda que vivimos siempre en un infierno
Tu problema es la obsesión, es nuestro
Pecaremos contra los estándares de bello
Solo por un buen sazón al corazón

[versos]
Yo no se si aguantaremos
No se cuanto tiempo tenemos
Solo se que junto a ti estoy atado y no puedo irme lejos

Quiero ya tirar mi cruz
Quiero eterna juventud
Por lo pronto hay que ir ojeando el menú

Para empezar un buen silón
con mucha grasa y guarnición
Mecero tráigase el licor
Para cachar a esta voz que escucho en mi interior

[coro]
Recuerda que vivimos siempre en un infierno
Tu problema es la obsesión, es nuestro
Pecaremos contra los estándares de bello
Solo por un buen sazón al corazón
Добавлено: 07.05.2012
Другие материалы по этой песне:

Страница создана 07.05.2012
http://primanota.ru/panda/un-tipo-de-indulgencia-chords.htm
Привет, Гость.
Предлагаем пройти революционный курс по гитаре.
Подарок от PrimaNota.Ru, забирай!