PrimaNota.ru - самый крупный в мире бесплатный архив песенных текстов, аккордов, табулатур и нот


Panda - Soy Un Ganador - таба, видео

Регистрация Запомнить меня
Войти через:  Facebook Google Twitter Vk Yandex Mail.ru

Panda - Soy Un Ganador - таба, видео

Печатать
Просмотров: 109
La canción lleva 2 guitarras pero las mayoria de las veces tocan lo mismo yo le 
pondre cuando hay 2 guitarras
Intro:
pp y r2d2:
D#||--------------------------|--------------------------|
A#||--------------------------|--------------------------|
F#||--------------------------|--7--7--7--7--7--7--7--7--|
C#||--7--7--7--7--7--7--7--7--|--7--7--7--7--7--7--7--7--|
G#||--7--7--7--7--7--7--7--7--|--5--5--5--5--5--5--5--5--|
D#||--5--5--5--5--5--5--5--5--|--------------------------|

--------------------------|--------------------------|
--------------------------|--------------------------|
--------------------------|--5--5--5--5--4--4--4--4--|
--5--5--5--5--5--5--5--5--|--5--5--5--5--5--5--5--5--|
--5--5--5--5--5--5--5--5--|--3--3--3--3--2--2--2--2--|
--3--3--3--3--3--3--3--3--|--------------------------|


--------------------------|--------------------------|
--------------------------|--------------------------|
--------------------------|--7--7--7--7--7--7--7--7--|
--7--7--7--7--7--7--7--7--|--7--7--7--7--7--7--7--7--|
--7--7--7--7--7--7--7--7--|--5--5--5--5--5--5--5--5--|
--5--5--5--5--5--5--5--5--|--------------------------|

  
--------------------------|-------------------|
--------------------------|-------------------|
--------------------------|-------------------|
--5--5--5--5--5--5--5--5--|--3----------------|
--5--5--5--5--5--5--5--5--|--3----------------|
--3--3--3--3--3--3--3--3--|--1----------------|

Verso 1:
PP y r2d2:
|---------------------------|
|---------------------------|
|--5--5--5--5--5--5--5--5S--|
|--5--5--5--5--5--5--5--5S--|
|--3--3--3--3--3--3--3--3S--|
|---------------------------|

--------------------------|--------------------------|
--------------------------|--------------------------|
--7--7--7--7--7--7--7--7--|--------------------------|
--7--7--7--7--7--7--7--7--|--5--5--5--5--5--5--5--5--|
--5--5--5--5--5--5--5--5--|--5--5--5--5--5--5--5--5--|
--------------------------|--3--3--3--3--3--3--3--3--|

------------------------|---------------------------|
------------------------|---------------------------|
--5--5--5-----5---------|--5--5--5--5--5--5--5--5S--|
--5--5--5--5--5----5----|--5--5--5--5--5--5--5--5S--|
--3--3--3--5--3----5----|--3--3--3--3--3--3--3--3S--|
-----------3-------3----|---------------------------|
 
--------------------------|--------------------------|
--------------------------|--------------------------|
--7--7--7--7--7--7--7--7--|--------------------------|
--7--7--7--7--7--7--7--7--|--5--5--5--5--5--5--5--5--|
--5--5--5--5--5--5--5--5--|--5--5--5--5--5--5--5--5--|
--------------------------|--3--3--3--3--3--3--3--3--|
 
--------------------------|
--------------------------|
--5--5--5--5--4--4--4--4--|
--5--5--5--5--5--5--5--5--|
--3--3--3--3--2--2--2--2--|
--------------------------|

Verso 2:
PP y r2d2:
|--------------------------|
|--------------------------|
|--------------------------|
|--7--7--7--7--7--7--7--7--|
|--7--7--7--7--7--7--7--7--|
|--5--5--5--5--5--5--5--5--|

  
--------------------------|--------------------------|
--------------------------|--------------------------|
--7--7--7--7--7--7--7--7--|--------------------------|
--7--7--7--7--7--7--7--7--|--5--5--5--5--5--5--5--5--|
--5--5--5--5--5--5--5--5--|--5--5--5--5--5--5--5--5--|
--------------------------|--3--3--3--3--3--3--3--3--|

--------------------------|--------------------------|
--------------------------|--------------------------|
--5--5--5--5--4--4--4--4--|--------------------------|
--5--5--5--5--5--5--5--5--|--7--7--7--7--7--7--7--7--|
--3--3--3--3--2--2--2--2--|--7--7--7--7--7--7--7--7--|
--------------------------|--5--5--5--5--5--5--5--5--|

--------------------------|--------------------------|
--------------------------|--------------------------|
--7--7--7--7--7--7--7--7--|--------------------------|
--7--7--7--7--7--7--7--7--|--5--5--5--5--5--5--5--5--|
--5--5--5--5--5--5--5--5--|--5--5--5--5--5--5--5--5--|
--------------------------|--3--3--3--3--3--3--3--3--|

--------------------------|
--------------------------|
--------------------------|
--3--3--3--3--3--3--3--3--|
--3--3--3--3--3--3--3--3--|
--1--1--1--1--1--1--1--1--|

pre-coro:
PP y r2d2:
|--------------------------|
|--------------------------|
|--------------------------|
|--7--7--7--7--7--7--7--7--|
|--7--7--7--7--7--7--7--7--|
|--5--5--5--5--5--5--5--5--|

--------------------------|--------------------------|
--------------------------|--------------------------|
--------------------------|--------------------------|
--5--5--5--5--5--5--5--5--|--3--3--3--3--3--3--3--3--|
--5--5--5--5--5--5--5--5--|--3--3--3--3--3--3--3--3--|
--3--3--3--3--3--3--3--3--|--1--1--1--1--1--1--1--1--|
 
--------------------------|--------------------------|
--------------------------|--------------------------|
--5--5--5--5--5--5--5--5--|--------------------------|
--5--5--5--5--5--5--5--5--|--7--7--7--7--7--7--7--7--|
--3--3--3--3--3--3--3--3--|--7--7--7--7--7--7--7--7--|
--------------------------|--5--5--5--5--5--5--5--5--|
 
--------------------------|--------------------------|
--------------------------|--------------------------|
--------------------------|--------------------------|
--5--5--5--5--5--5--5--5--|--3--3--3--3--3--3--3--3--|
--5--5--5--5--5--5--5--5--|--3--3--3--3--3--3--3--3--|
--3--3--3--3--3--3--3--3--|--1--1--1--1--1--1--1--1--|

 
--------------------------|
--------------------------|
--5--5--5--5--5--5--5--5--|
--5--5--5--5--5--5--5--5--|
--3--3--3--3--3--3--3--3--|
--------------------------|
coro:
r2d2:
----------------------------|
|---------------------------|
|--7--7--7--7--7--7S--9--9--|
|--x--x--x--x--x--x---x--x--|
|--5--5--5--5--5--5s--7--7--|
|---------------------------|

-----------------------------|--------------------------------|
-----------------------------|--------------------------------|
--10--10--10--10s--9--9------|--------------------------------|
---x---x---x---x---x--x------|--10--10--10--10--10--10S--9----|
---8---8---8---8s--7--7------|---x---x---x---x---x---x---x----|
-----------------------------|---8---8---8---8---8---8S--7----|
 
--------------------------|---------------------------|
--------------------------|---------------------------|
--------------------------|--7--7--7--7--7--7S--9--9--|
--7--7--7--7--7--7--7--7--|--x--x--x--x--x--x---x--x--|
--x--x--x--x--x--x--x--x--|--5--5--5--5--5--5s--7--7--|
--5--5--5--5--5--5--5--5--|---------------------------|
            
-----------------------------|-------------------|-------------------|
-----------------------------|-------------------|-------------------|
--10--10--10--10s--9--9------|--5----------------|-------------------|
---x---x---x---x---x--x------|--x----------------|-------------------|
---8---8---8---8s--7--7------|--3----------------|-------------------|
-----------------------------|-------------------|-------------------|

PP: 
--------------------------|--------------------------|
--------------------------|--------------------------|
--7--7--7--7--7--7--7--7--|--------------------------|
--7--7--7--7--7--7--7--7--|--5--5--5--5--5--5--5--5--|
--5--5--5--5--5--5--5--5--|--5--5--5--5--5--5--5--5--|
--------------------------|--3--3--3--3--3--3--3--3--|
  
--------------------------|--------------------------|
--------------------------|--------------------------|
--5--5--5--5--5--5--5--5--|--------------------------|
--5--5--5--5--5--5--5--5--|--7--7--7--7--7--7--7--7--|
--3--3--3--3--3--3--3--3--|--7--7--7--7--7--7--7--7--|
--------------------------|--5--5--5--5--5--5--5--5--|
            
--------------------------|--------------------------|-------------------|
--------------------------|--------------------------|-------------------|
--7--7--7--7--7--7--7--7--|--------------------------|-------------------|
--7--7--7--7--7--7--7--7--|--5--5--5--5--5--5--5--5--|--3----------------|
--5--5--5--5--5--5--5--5--|--5--5--5--5--5--5--5--5--|--3----------------|
--------------------------|--3--3--3--3--3--3--3--3--|--1----------------|
Verso 3: puro bajo

Verso 4:
PP y r2d2:
----------------------|----------------------|----------------------|
----------------------|----------------------|----------------------|
----------------------|----------------------|--7----7----x----x----|
--7----7----x----x----|--x----x----x----x----|--7----7----x----x----|
--7----7----x----x----|--x----x----x----x----|--5----5----x----x----|
--5----5----x----x----|--x----x----x----x----|----------------------|
   
----------------------|----------------------|----------------------|
----------------------|----------------------|----------------------|
--x----x----x----x----|----------------------|----------------------|
--x----x----x----x----|--5----5----x----x----|--x----x----x----x----|
--x----x----x----x----|--5----5----x----x----|--x----x----x----x----|
----------------------|--3----3----x----x----|--x----x----x----x----|
  
----------------------|----------------------|----------------------|
----------------------|----------------------|----------------------|
--5----5----x----x----|--4----4----x----x----|----------------------|
--5----5----x----x----|--4----4----x----x----|--7----7----x----x----|
--3----3----x----x----|--2----2----x----x----|--7----7----x----x----|
----------------------|----------------------|--5----5----x----x----|
    
----------------------|----------------------|----------------------|
----------------------|----------------------|----------------------|
----------------------|--7----7----x----x----|--x----x----x----x----|
--x----x----x----x----|--7----7----x----x----|--x----x----x----x----|
--x----x----x----x----|--5----5----x----x----|--x----x----x----x----|
--x----x----x----x----|----------------------|----------------------|
               
----------------------|----------------------|-------------------|
----------------------|----------------------|-------------------|
----------------------|----------------------|-------------------|
--5----5----x----x----|--x----x----x----x----|--3----------------|
--5----5----x----x----|--x----x----x----x----|--3----------------|
--3----3----x----x----|--x----x----x----x----|--1----------------|
Pre-coro y Coro: Igual
Luego viene el solo de teclado

Solo:
Teclado(afinacion normal): 
|--------------------|----------------------------|
|---------------7----|--12------14--16--14--12----|
|--------------------|----------------------------|
|--------------------|----------------------------|
|--------------------|----------------------------|
|--------------------|----------------------------|
   
-------------------------|--------------------------|---------------------|
--11------12-11-9--------|--14------16--17----16----|--12------------7----|
-------------------------|--------------------------|---------------------|
-------------------------|--------------------------|---------------------|
-------------------------|--------------------------|---------------------|
-------------------------|--------------------------|---------------------|
       
----------------------------|-------------------------|
--12------14--16--14--12----|--11------12-11-9--------|
----------------------------|-------------------------|
----------------------------|-------------------------|
----------------------------|-------------------------|
----------------------------|-------------------------|
                      
--------------------------|---------------------------|-------------------|
--14------16--17----16----|--12----------19s----21----|-------------------|
--------------------------|---------------------------|-------------------|
--------------------------|---------------------------|-------------------|
--------------------------|---------------------------|-------------------|
--------------------------|---------------------------|-------------------|

PP y r2d2:
|---------------------------|
|---------------------------|
|--5--5--5--5--5--5--5--5S--|
|--5--5--5--5--5--5--5--5S--|
|--3--3--3--3--3--3--3--3S--|
|---------------------------|

--------------------------|--------------------------|
--------------------------|--------------------------|
--7--7--7--7--7--7--7--7--|--------------------------|
--7--7--7--7--7--7--7--7--|--5--5--5--5--5--5--5--5--|
--5--5--5--5--5--5--5--5--|--5--5--5--5--5--5--5--5--|
--------------------------|--3--3--3--3--3--3--3--3--|

------------------------|---------------------------|
------------------------|---------------------------|
--5--5--5-----5---------|--5--5--5--5--5--5--5--5S--|
--5--5--5--5--5----5----|--5--5--5--5--5--5--5--5S--|
--3--3--3--5--3----5----|--3--3--3--3--3--3--3--3S--|
-----------3-------3----|---------------------------|
 
--------------------------|--------------------------|
--------------------------|--------------------------|
--7--7--7--7--7--7--7--7--|--------------------------|
--7--7--7--7--7--7--7--7--|--5--5--5--5--5--5--5--5--|
--5--5--5--5--5--5--5--5--|--5--5--5--5--5--5--5--5--|
--------------------------|--3--3--3--3--3--3--3--3--|
 
--------------------------|
--------------------------|
--5--5--5--5--4--4--4--4--|
--5--5--5--5--5--5--5--5--|
--3--3--3--3--2--2--2--2--|
--------------------------|

Pre-coro:
r2d2: 
--------------------------|--------------------------|
--------------------------|--------------------------|
--5--5--5--5--5--5--5--5--|--4--4--4--4--4--4--4--4--|
--x--x--x--x--x--x--x--x--|--x--x--x--x--x--x--x--x--|
--3--3--3--3--3--3--3--3--|--2--2--2--2--2--2--2--2--|
--------------------------|--------------------------|
 
----------------------------------|--------------------------|
----------------------------------|--------------------------|
---5---5---5---5---5---5---5---5--|--9--9--9--9--9--9--9--9--|
---x---x---x---x---x---x---x---x--|--x--x--x--x--x--x--x--x--|
---3---3---3---3---3---3---3---3--|--7--7--7--7--7--7--7--7--|
----------------------------------|--------------------------|

--------------------------|--------------------------|
--------------------------|--------------------------|
--5--5--5--5--5--5--5--5--|--4--4--4--4--4--4--4--4--|
--x--x--x--x--x--x--x--x--|--x--x--x--x--x--x--x--x--|
--3--3--3--3--3--3--3--3--|--2--2--2--2--2--2--2--2--|
--------------------------|--------------------------|
 
----------------------------------|--------------------------|
----------------------------------|--------------------------|
---5---5---5---5---5---5---5---5--|--9--9--9--9--9--9--9--9--|
---x---x---x---x---x---x---x---x--|--x--x--x--x--x--x--x--x--|
---3---3---3---3---3---3---3---3--|--7--7--7--7--7--7--7--7--|
----------------------------------|--------------------------|

PP:
|--------------------------|
|--------------------------|
|--------------------------|
|--7--7--7--7--7--7--7--7--|
|--7--7--7--7--7--7--7--7--|
|--5--5--5--5--5--5--5--5--|

--------------------------|--------------------------|
--------------------------|--------------------------|
--------------------------|--------------------------|
--5--5--5--5--5--5--5--5--|--3--3--3--3--3--3--3--3--|
--5--5--5--5--5--5--5--5--|--3--3--3--3--3--3--3--3--|
--3--3--3--3--3--3--3--3--|--1--1--1--1--1--1--1--1--|
 
--------------------------|--------------------------|
--------------------------|--------------------------|
--5--5--5--5--5--5--5--5--|--------------------------|
--5--5--5--5--5--5--5--5--|--7--7--7--7--7--7--7--7--|
--3--3--3--3--3--3--3--3--|--7--7--7--7--7--7--7--7--|
--------------------------|--5--5--5--5--5--5--5--5--|
 
--------------------------|--------------------------|
--------------------------|--------------------------|
--------------------------|--------------------------|
--5--5--5--5--5--5--5--5--|--3--3--3--3--3--3--3--3--|
--5--5--5--5--5--5--5--5--|--3--3--3--3--3--3--3--3--|
--3--3--3--3--3--3--3--3--|--1--1--1--1--1--1--1--1--|

 
--------------------------|
--------------------------|
--5--5--5--5--5--5--5--5--|
--5--5--5--5--5--5--5--5--|
--3--3--3--3--3--3--3--3--|
--------------------------|

Coro:
r2d2:
----------------------------------|--------------------------|
----------------------------------|--------------------------|
--10--10--10--10--10--10--10--10--|--9--9--9--9--7--7--7--7--|
---x---x---x---x---x---x---x---x--|--x--x--x--x--x--x--x--x--|
---8---8---8---8---8---8---8---8--|--7--7--7--7--5--5--5--5--|
----------------------------------|--------------------------|
 
--------------------------|------------------------------|
--------------------------|------------------------------|
--9--9--9--9--9--9--9--9--|--7--7--7--7---5---5---5---5--|
--x--x--x--x--x--x--x--x--|--x--x--x--x---x---x---x---x--|
--7--7--7--7--7--7--7--7--|--5--5--5--5---3---3---3---3--|
--------------------------|------------------------------|

----------------------------------|--------------------------|
----------------------------------|--------------------------|
--10--10--10--10--10--10--10--10--|--9--9--9--9--7--7--7--7--|
---x---x---x---x---x---x---x---x--|--x--x--x--x--x--x--x--x--|
---8---8---8---8---8---8---8---8--|--7--7--7--7--5--5--5--5--|
----------------------------------|--------------------------|
  
--------------------------|------------------------------|
--------------------------|------------------------------|
--9--9--9--9--9--9--9--9--|--7--7--7--7---5---5---5---5--|
--x--x--x--x--x--x--x--x--|--x--x--x--x---x---x---x---x--|
--7--7--7--7--7--7--7--7--|--5--5--5--5---3---3---3---3--|
--------------------------|------------------------------|

----------------------------------|--------------------------|
----------------------------------|--------------------------|
--10--10--10--10--10--10--10--10--|--9--9--9--9--7--7--7--7--|
---x---x---x---x---x---x---x---x--|--x--x--x--x--x--x--x--x--|
---8---8---8---8---8---8---8---8--|--7--7--7--7--5--5--5--5--|
----------------------------------|--------------------------|
 
--------------------------|------------------------------|
--------------------------|------------------------------|
--9--9--9--9--9--9--9--9--|--7--7--7--7---5---5---5---5--|
--x--x--x--x--x--x--x--x--|--x--x--x--x---x---x---x---x--|
--7--7--7--7--7--7--7--7--|--5--5--5--5---3---3---3---3--|
--------------------------|------------------------------|
 
----------------------------------|--------------------------|
----------------------------------|--------------------------|
--10--10--10--10--10--10--10--10--|--9--9--9--9--7--7--7--7--|
---x---x---x---x---x---x---x---x--|--x--x--x--x--x--x--x--x--|
---8---8---8---8---8---8---8---8--|--7--7--7--7--5--5--5--5--|
----------------------------------|--------------------------|
       
--------------------|-------------------|-------------------|
--------------------|-------------------|-------------------|
---5----------------|-------------------|-------------------|
---x----------------|-------------------|-------------------|
---3----------------|-------------------|-------------------|
--------------------|-------------------|-------------------|

PP: 
|--------------------------|
|--------------------------|
|--7--7--7--7--7--7--7--7--|
|--7--7--7--7--7--7--7--7--|
|--5--5--5--5--5--5--5--5--|
|--------------------------|
  
--------------------------|--------------------------|
--------------------------|--------------------------|
--------------------------|--5--5--5--5--5--5--5--5--|
--5--5--5--5--5--5--5--5--|--5--5--5--5--5--5--5--5--|
--5--5--5--5--5--5--5--5--|--3--3--3--3--3--3--3--3--|
--3--3--3--3--3--3--3--3--|--------------------------|
 
--------------------------|--------------------------|
--------------------------|--------------------------|
--------------------------|--7--7--7--7--7--7--7--7--|
--7--7--7--7--7--7--7--7--|--7--7--7--7--7--7--7--7--|
--7--7--7--7--7--7--7--7--|--5--5--5--5--5--5--5--5--|
--5--5--5--5--5--5--5--5--|--------------------------|

--------------------------|--------------------------|
--------------------------|--------------------------|
--------------------------|--5--5--5--5--5--5--5--5--|
--5--5--5--5--5--5--5--5--|--5--5--5--5--5--5--5--5--|
--5--5--5--5--5--5--5--5--|--3--3--3--3--3--3--3--3--|
--3--3--3--3--3--3--3--3--|--------------------------|

--------------------------|--------------------------|
--------------------------|--------------------------|
--------------------------|--7--7--7--7--7--7--7--7--|
--7--7--7--7--7--7--7--7--|--7--7--7--7--7--7--7--7--|
--7--7--7--7--7--7--7--7--|--5--5--5--5--5--5--5--5--|
--5--5--5--5--5--5--5--5--|--------------------------|
 
--------------------------|--------------------------|
--------------------------|--------------------------|
--------------------------|--5--5--5--5--5--5--5--5--|
--5--5--5--5--5--5--5--5--|--5--5--5--5--5--5--5--5--|
--5--5--5--5--5--5--5--5--|--3--3--3--3--3--3--3--3--|
--3--3--3--3--3--3--3--3--|--------------------------|

--------------------------|--------------------------|
--------------------------|--------------------------|
--------------------------|--7--7--7--7--7--7--7--7--|
--7--7--7--7--7--7--7--7--|--7--7--7--7--7--7--7--7--|
--7--7--7--7--7--7--7--7--|--5--5--5--5--5--5--5--5--|
--5--5--5--5--5--5--5--5--|--------------------------|
                
--------------------------|-------------------|-------------------|
--------------------------|-------------------|-------------------|
--------------------------|-------------------|-------------------|
--5--5--5--5--5--5--5--5--|--3----------------|-------------------|
--5--5--5--5--5--5--5--5--|--3----------------|-------------------|
--3--3--3--3--3--3--3--3--|--1----------------|-------------------|
Добавлено: 21.03.2012
Другие материалы по этой песне:

Страница создана 05.03.2012
http://primanota.ru/panda/soy-un-ganador-chords.htm
Привет, Гость.
Предлагаем пройти революционный курс по гитаре.
Подарок от PrimaNota.Ru, забирай!