PrimaNota.ru - самый крупный в мире бесплатный архив песенных текстов, аккордов, табулатур и нот


Panda - Poetics Acto 2 - таба, видео

Регистрация Запомнить меня
Войти через:  Facebook Google Twitter Vk Yandex Mail.ru

Panda - Poetics Acto 2 - таба, видео

Печатать
Просмотров: 73
Acto 2

1-Que tu cama sea mi hogar
2-Adheridos separados 
3-Martirio de otro
4-¡Soy un ganador!
5-Lascivamente
6-Un tipo de indulgencia
7-Amnistia
8-Agradable locura temporal
9-Espejismos y Visiones
10-Quinta Real


1-Que tu cama sea mi hogar
G1

e|-14--14--14--14--13--13--13--11--11--11--11--9--9---|
B|---16--16--16--16--14--14--14--11--11--11--11--9--9-|
G|----------------------------------------------------|
D|----------------------------------------------------|
A|----------------------------------------------------|
E|----------------------------------------------------|

G1
e|------------------------------------------------------|
B|------------------------------------------------------|
G|-8-8-8---8-8-8----6-6-6-6-6---8-8-8--8-8-8----6--6--6-|
D|-8-8-8---8-8-8----6-6-6-6-6---8-8-8--8-8-8----6--6--6-|
A|-6-6-6---6-6-6----4-4-4-4-4---6-6-6--6-6-6----4--4--4-|
E|------------------------------------------------------|


Mírenla, esa figura majestual
ya sintió desde lejos mi lujuria
respondió con sonrisa tan tierna
y con malicia, su piel como la seda
           A#   B
se me acerco,   deja que mi cuerpo te,
     F#              B
te transporte a otro lugar
                   F#
que mi cama sea tu hogar
     F#       B
maximizaremos la necesidad

G1
e|------------------------------------------------------|
B|------------------------------------------------------|
G|-8-8-8---8-8-8----6-6-6-6-6---8-8-8--8-8-8----6--6--6-|
D|-8-8-8---8-8-8----6-6-6-6-6---8-8-8--8-8-8----6--6--6-|
A|-6-6-6---6-6-6----4-4-4-4-4---6-6-6--6-6-6----4--4--4-|
E|------------------------------------------------------|


De todo hay, gustar sentir tocar
sabe bien, con placer tu debes de ...,
conocer lo que el hombre desea y prefiere
                                   A#
me abatió el saber que gratis no es
 B            F#                 B
que inocente yo, que ingenuo al pensar
                     F#
que tu cama era mi hogar yo me deje cautivar
 G#m                 F#
entonces soy un trabajo mas
 G#m                F#
habías puesto mi corazón a andar
  G#m                F#
ahora pues dame tu placer
    G#m                F#             B-A#-F#-G#m
si así va a ser pues hazte valer


G1
e|------------------------------------------------------|
B|------------------------------------------------------|
G|-8-8-8---8-8-8----6-6-6-6-6---8-8-8--8-8-8----6--6--6-|
D|-8-8-8---8-8-8----6-6-6-6-6---8-8-8--8-8-8----6--6--6-|
A|-6-6-6---6-6-6----4-4-4-4-4---6-6-6--6-6-6----4--4--4-|
E|------------------------------------------------------|

( se repite otra vez )

Uohh!!!...

Y al fin de la transacción
al dormir voy a soñar
que tu cama fue mi hogar
todo en posición fetal
y mañana buscaras el dinero de alguien mas
que tu cama sea su hogar
y tus sabanas rozar y han de salar



2-Adheridos separados 

D#  Gm-F
D#  Gm-F
Cm  D#  F

Gm       F       D#  Gm        F        D#
  Acaso no prometimos juntos siempre estar
F      Cm              D#            F
  Ignoraba que mi abandono te hacía mal
Gm           F         D#  Gm           F    D#
  Si la ignorancia es dicha entonces quiero ser
F         Cm            D#      F
  Quiero ser dichosamente ignorante

Gm              F      D# Gm         F   D#
  Pensé que habia madurado estaba equivocado
F           Cm                   D#  F
  No maduré me hice experto en fingir

Gm       F        D# Gm        F      D#
  Tenía todo planeado lo que iba a decir
F         Cm              D#       F
  Nudo en la garganta tenías que surgir


  D#  Gm   F     D#  Gm  F    Cm                   D# F
  Yo... prometo cantar esa melodía que te hace sonreir
  D#  Gm     F    D# Gm  F    Cm                      D#   F
  Tú... prefieres oir aquella canción que ya olvidé como va


D#  Gm-F
D#  Gm-F
Cm  D#  F


Gm     F  D# Gm     F       D# F
  Realmente   no estoy tan lejos
  Cm       D#            F
  Solo a unas horas de ahí
Gm            F          D#
  Ponle atención a este mapa
Gm            F        D#  F
  No importa donde yo vaya
       Cm              D#  F
  Son pocos centímetros
            A#  F
  Entre tú y yo

          Gm         D#       A#  F
  Estamos adheridos separados
        Gm          D#
  Esos solo son centímetros
    A#   F   Gm   D#
  Acércate acércate
    A#   F   Gm   D#
  Acércate acércate


  D#  Gm    F    D#    Gm F   Cm                    D#  F
  Yo... prometo cantar esa melodía que te hacía sonreir
  D#  Gm     F     D# Gm  F    Cm                       D# F
  Tú... prefieres oir aquella canción la cual no puedo tocar

  D#  Gm       F     D#    Gm     D#       Cm
  No,.. no te rindas jamás no te rindas jamás
                       D#            F
  Pues que no ves que sin ti no hay más

  D# Gm    F     D#  Gm    F       Cm
  No, no puedo evitar  yo sé que estoy mal
                     D#  F  A#
  Admite, sin mi no hay más

3-Martirio de otro

Parte Acustica
     C#m
D#|------------------------|-------------------------|
A#|--5----5----5--5--5--5--|-----5--5----5--5--5--5--|
F#|--6----6----6--6--6--6--|-----6--6----6--6--6--6--|
C#|--6----6----6--6--6--6--|-----6--6----6--6--6--6--|
G#|--4----4----4--4--4--4--|-----4--4----4--4--4--4--|
D#|------------------------|-------------------------|
  A
------------------------|------------------------|
------------------------|------------------------|
--6----6----6--6--6--6--|----6--6----6--6--6--6--|
--7----7----7--7--7--7--|----7--7----7--7--7--7--|
--7----7----7--7--7--7--|----7--7----7--7--7--7--|
--5----5----5--5--5--5--|----5--5----5--5--5--5--|
  E
------------------------|-------------------------|
------------------------|-------------------------|
--9----9----9--9--9--9--|-----9--9----9--9--9--9--|
--9----9----9--9--9--9--|-----9--9----9--9--9--9--|
--7----7----7--7--7--7--|-----7--7----7--7--7--7--|
--9----9----9--9--9--9--|-----9--9----9--9--9--9--|
  A
------------------------|-------------------------|
------------------------|-------------------------|
--6----6----6--6--6--6--|-----6--6----6--6--6--6--|
--7----7----7--7--7--7--|-----7--7----7--7--7--7--| X2
--7----7----7--7--7--7--|-----7--7----7--7--7--7--|
--5----5----5--5--5--5--|-----5--5----5--5--5--5--|




(0:22)
 G#
----------------------|----------------------|
----------------------|----------------------|
--6----6----6----6----|--6----6----6----6----|
--6----6----6----6----|--6----6----6----6----|
--4----4----4----4----|--4----4----4----4----|
----------------------|----------------------|
  A
----------------------|----------------------|
----------------------|----------------------|
----------------------|----------------------|
--7----7----7----7----|--7----7----7----7----|
--7----7----7----7----|--7----7----7----7----| X2
--5----5----5----5----|--5----5----5----5----|


(0:33)
--------------------------|--------------------------|
--------------------------|--------------------------|
--------------------------|--------------------------|
--6--6--6--6--6--6--6--6--|--6--6--6--6--6--6--6--6--|
--4--4--4--4--4--4--4--4--|--4--4--4--4--4--4--4--4--|
--------------------------|--------------------------|

--------------------------|--------------------------|
--------------------------|--------------------------|
--------------------------|--------------------------|
--------------------------|--------------------------|
--7--7--7--7--7--7--7--7--|--7--7--7--7--7--7--7--7--|
--5--5--5--5--5--5--5--5--|--5--5--5--5--5--5--5--5--|

--------------------------|--------------------------|
--------------------------|--------------------------|
--------------------------|--------------------------|
--------------------------|--------------------------|
--2--2--2--2--2--2--2--2--|--2--2--2--2--2--2--2--2--|
--0--0--0--0--0--0--0--0--|--0--0--0--0--0--0--0--0--|

--------------------------|--------------------------|
--------------------------|--------------------------|
--------------------------|--------------------------|
--------------------------|--------------------------|
--7--7--7--7--7--7--7--7--|--7--7--7--7--7--7--7--7--|
--5--5--5--5--5--5--5--5--|--5--5--5--5--5--5--5--5--|


(0:45)
------------------------------|------------------------------|
------------------------------|------------------------------|
--9------9------9------9------|--9------9------9------9------|
-----11-----11-----11-----11--|-----11-----11-----11-----11--|
------------------------------|------------------------------|
------------------------------|------------------------------|

----------------------------------|----------------------------------|
----------------------------------|----------------------------------|
--13------13------13------13------|--13------13------13------13------|
------14------14------14------14--|------14------14------14------14--|
----------------------------------|----------------------------------|
----------------------------------|----------------------------------|

----------------------------------|----------------------------------|
----------------------------------|----------------------------------|
----------------------------------|----------------------------------|
--13------13------13------13------|--13------13------13------13------|
------14------14------14------14--|------14------14------14------14--|
----------------------------------|----------------------------------|

------------------------------|-------------------------------|
------------------------------|-------------------------------|
--9------9------9------9------|--11------9------9------9------|
-----11-----11-----11-----11--|------11-----11-----11-----11--|
------------------------------|-------------------------------|
------------------------------|-------------------------------|


(0:56)
------------------------|-----------------------|------------------------|
------------------------|-----------------------|------------------------|
--9--8----9--8----9--8--|-----9--8----9--8------|-----8--9----8--9----8--|
------------------------|-----------------------|--7---------------------|
------------------------|-----------------------|------------------------|
------------------------|-----------------------|------------------------|

-----------------------|------------------------------|
-----------------------|------------------------------|
--9----8--9----8--9----|--13--------13--------13------|
-----------------------|------14--------14--------14--|
-----------------------|------------------------------|
-----------------------|------------------------------|

---------------------------|------------------------------|
---------------------------|------------------------------|
-----13--------13----------|------------------------------|
--L------14--------14------|------14--16----14--16----14--|
---------------------------|--13--------------------------|
---------------------------|------------------------------|

                               (1:08)
----------------------------|------------------------------|
----------------------------|------------------------------|
----------------------------|------------------------------|
--16----14--16----14--16----|--14--13----14--13----14--13--|
----------------------------|------------------------------|
----------------------------|------------------------------|

---------------------------|------------------------------|
---------------------------|------------------------------|
---------------------------|------------------------------|
-----14--13----14--13------|------13--14----13--14----13--|
---------------------------|--12--------------------------|
---------------------------|------------------------------|

----------------------------|------------------------------|
----------------------------|------------------------------|
----------------------------|--13--------13--------13------|
--14----13--14----13--14----|------14--------14--------14--|
----------------------------|------------------------------|
----------------------------|------------------------------|

---------------------------|------------------------------|
---------------------------|------------------------------|
-----13--------13----------|------------------------------|
--L------14--------14------|------14--16----14--16----14--|
---------------------------|--13--------------------------|
---------------------------|------------------------------|

----------------------------|
----------------------------|
----------------------------|
--16----14--16----14--16----|
----------------------------|
----------------------------|


(Coro)
C#m
--------------------------|
--------------------------|
--6--6--6--6--6--6--6--6--|
--6--6--6--6--6--6--6--6--|
--4--4--4--4--4--4--4--4--|
--------------------------|
C#m                           A
--------------------------|--------------------------|
--------------------------|--------------------------|
--6--6--6--6--6--6--6--6--|--------------------------|
--6--6--6--6--6--6--6--6--|--7--7--7--7--7--7--7--7--|
--4--4--4--4--4--4--4--4--|--7--7--7--7--7--7--7--7--|
--------------------------|--5--5--5--5--5--5--5--5--|
  A                           E
--------------------------|--------------------------|
--------------------------|--------------------------|
--------------------------|--9--9--9--9--9--9--9--9--|
--7--7--7--7--7--7--7--7--|--9--9--9--9--9--9--9--9--|
--7--7--7--7--7--7--7--7--|--7--7--7--7--7--7--7--7--|
--5--5--5--5--5--5--5--5--|--------------------------|
  E                          B
--------------------------|--------------------------|
--------------------------|--------------------------|
--9--9--9--9--9--9--9--9--|--------------------------|
--9--9--9--9--9--9--9--9--|--9--9--9--9--9--9--9--9--|
--7--7--7--7--7--7--7--7--|--9--9--9--9--9--9--9--9--|
--------------------------|--7--7--7--7--7--7--7--7--|
  C                                   C#m
----------------------------------|--------------------------|
----------------------------------|--------------------------|
----------------------------------|--6--6--6--6--6--6--6--6--|
--10--10--10--10--10--10--10--10--|--6--6--6--6--6--6--6--6--|
--10--10--10--10--10--10--10--10--|--4--4--4--4--4--4--4--4--|
---8---8---8---8---8---8---8---8--|--------------------------|
  C#m                        A
--------------------------|--------------------------|
--------------------------|--------------------------|
--6--6--6--6--6--6--6--6--|--------------------------|
--6--6--6--6--6--6--6--6--|--7--7--7--7--7--7--7--7--|
--4--4--4--4--4--4--4--4--|--7--7--7--7--7--7--7--7--|
--------------------------|--5--5--5--5--5--5--5--5--|
  A                          E
--------------------------|--------------------------|
--------------------------|--------------------------|
--------------------------|--9--9--9--9--9--9--9--9--|
--7--7--7--7--7--7--7--7--|--9--9--9--9--9--9--9--9--|
--7--7--7--7--7--7--7--7--|--7--7--7--7--7--7--7--7--|
--5--5--5--5--5--5--5--5--|--------------------------|
  E                          B
--------------------------|--------------------------|
--------------------------|--------------------------|
--9--9--9--9--9--9--9--9--|--------------------------|
--9--9--9--9--9--9--9--9--|--9--9--9--9--9--9--9--9--|
--7--7--7--7--7--7--7--7--|--9--9--9--9--9--9--9--9--|
--------------------------|--7--7--7--7--7--7--7--7--|
  C
----------------------------------|
----------------------------------|
----------------------------------|
--10--10--10--10--10--10--10--10--|
--10--10--10--10--10--10--10--10--|
---8---8---8---8---8---8---8---8--|



(Solo)

--7-4-6-7-7-6-4-6-7-4-6-7-7-6-4-6-|
----------------------------------|
----------------------------------|
----------------------------------|
----------------------------------|
----------------------------------|


--7-4-6-7-7-6-4-6-7-4-6-7-7-6-4-6-|
----------------------------------|
----------------------------------|
----------------------------------|
----------------------------------|
----------------------------------|


--12-9-11-12-12-11-9-11-12-9-11-12-12-11-9-11-|
----------------------------------------------|
----------------------------------------------|
----------------------------------------------|
----------------------------------------------|
----------------------------------------------|


--------------------------------------------------|
--17----16-17-17-16----16-17----16-17-17-16----16-|
-----18-------------18-------18-------------18----|
--------------------------------------------------|
--------------------------------------------------|
--------------------------------------------------|


(1:47)

--7-4-6-7-7-6-4-6-7-4-6-7-7-6-4-6-|--7-4-6-7-7-6-4-6-7-4-6-7-7-6-4-6-|
----------------------------------|----------------------------------|
----------------------------------|----------------------------------|
----------------------------------|----------------------------------|
----------------------------------|----------------------------------|
----------------------------------|----------------------------------|


--12-9-11-12-12-11-9-11-12-9-11-12-12-11-9-11-|
----------------------------------------------|
----------------------------------------------|
----------------------------------------------|
----------------------------------------------|
----------------------------------------------|


--19--17-19-16-17-14-16----14-------------------|
------------------------17----16-17----16----14-|
------------------------------------18----16----|
------------------------------------------------|
------------------------------------------------|
------------------------------------------------|

(1:52)

--12-9-11-12-12-11-9-11-12-9-11-12-14--12-14-|
---------------------------------------------|
---------------------------------------------|
---------------------------------------------|
---------------------------------------------|
---------------------------------------------|


--12-9-11-12-12-11-9-11-12-9-11-12-14-9-12-14-|
----------------------------------------------|
----------------------------------------------|
----------------------------------------------|
----------------------------------------------|
----------------------------------------------|


--16--14-16-16-14-16-15-16--15-16-17--16-17-|
--------------------------------------------|
--------------------------------------------|
--------------------------------------------|
--------------------------------------------|
--------------------------------------------|


--16--14-16-16-14-16-15-16--15-16-17--16-17-|
--------------------------------------------|
--------------------------------------------|
--------------------------------------------|
--------------------------------------------|
--------------------------------------------|

 (1:58)

--12-9-11-12-12-11-9-11-12-9-11-12-14--12-14-|
---------------------------------------------|
---------------------------------------------|
---------------------------------------------|
---------------------------------------------|
---------------------------------------------|


--12-9-11-12-12-11-9-11-12-9-11-12-14--12-14-|
---------------------------------------------|
---------------------------------------------|
---------------------------------------------|
---------------------------------------------|
---------------------------------------------|


--16--14-16-16--14-16-17--14-16-16--14-16-|
------------------------------------------|
------------------------------------------|
------------------------------------------|
------------------------------------------|
------------------------------------------|

                                             (2:04)
--19--17-19-16-17-14-16----14-------------------|---------------|
------------------------17----16-17----16----14-|---------------|
------------------------------------18----16----|---------------|
------------------------------------------------|---------------|
------------------------------------------------|---------------|
------------------------------------------------|---------------|

                     (2:06)
-------------------|-------------------------|--------------|
-------------------|-------------------------|--------------|
-------------------|-------------------------|--------------|
-------------------|--------9----13----18----|--------------|
-------------------|--11---------------------|--------------|
-------------------|-------------------------|--------------|


  (2:09)                                           (2:12)
-----------------------------|----------|------------------------|
-----------------------------|----------|------------------------|
-----------------------------|----------|------------------------|
-----------------------19----|----------|--------14----16----18--|
--10g12----16----19----------|----------|--14--------------------|
-----------------------------|----------|------------------------|

                     (2:15)
-------------------|--------------------------|------------------|
-------------------|--------------------------|------------------|
-------------------|--------------------------|------------------|
-------------------|--13----16----13----------|------------------|
-------------------|--------------------14----|------------------|
-------------------|--------------------------|------------------|


  (2:18)                                         (2:20)
-------------------------|---------|-----------------------------|
-------------------------|---------|-----------------------------|
-------------------------|---------|-----------------------------|
--------9----13----18----|---------|-----------------------19----|
--11---------------------|---------|--10g12----16----19----------|
-------------------------|---------|-----------------------------|


                      (2:24)
-------------------|--------------------------|-------------------|
-------------------|--------------------------|-------------------|
-------------------|--------------------------|-------------------|
-------------------|--------14----16----18----|-------------------|
-------------------|--14----------------------|-------------------|
-------------------|--------------------------|-------------------|


  (2:26)
--------------------------|
--------------------------|
--------------------------|
--13----16----13----------|
--------------------14----|
--------------------------|



(Coro)
 C#m
--------------------------|
--------------------------|
--6--6--6--6--6--6--6--6--|
--6--6--6--6--6--6--6--6--|
--4--4--4--4--4--4--4--4--|
--------------------------|
 C#m                         A
--------------------------|--------------------------|
--------------------------|--------------------------|
--6--6--6--6--6--6--6--6--|--------------------------|
--6--6--6--6--6--6--6--6--|--7--7--7--7--7--7--7--7--|
--4--4--4--4--4--4--4--4--|--7--7--7--7--7--7--7--7--|
--------------------------|--5--5--5--5--5--5--5--5--|
  A                          E
--------------------------|--------------------------|
--------------------------|--------------------------|
--------------------------|--9--9--9--9--9--9--9--9--|
--7--7--7--7--7--7--7--7--|--9--9--9--9--9--9--9--9--|
--7--7--7--7--7--7--7--7--|--7--7--7--7--7--7--7--7--|
--5--5--5--5--5--5--5--5--|--------------------------|
  E                          B
--------------------------|--------------------------|
--------------------------|--------------------------|
--9--9--9--9--9--9--9--9--|--------------------------|
--9--9--9--9--9--9--9--9--|--9--9--9--9--9--9--9--9--|
--7--7--7--7--7--7--7--7--|--9--9--9--9--9--9--9--9--|
--------------------------|--7--7--7--7--7--7--7--7--|
  C                                   C#m
----------------------------------|--------------------------|
----------------------------------|--------------------------|
----------------------------------|--6--6--6--6--6--6--6--6--|
--10--10--10--10--10--10--10--10--|--6--6--6--6--6--6--6--6--|
--10--10--10--10--10--10--10--10--|--4--4--4--4--4--4--4--4--|
---8---8---8---8---8---8---8---8--|--------------------------|
  C#m                        A
--------------------------|--------------------------|
--------------------------|--------------------------|
--6--6--6--6--6--6--6--6--|--------------------------|
--6--6--6--6--6--6--6--6--|--7--7--7--7--7--7--7--7--|
--4--4--4--4--4--4--4--4--|--7--7--7--7--7--7--7--7--|
--------------------------|--5--5--5--5--5--5--5--5--|
  A                          E
--------------------------|--------------------------|
--------------------------|--------------------------|
--------------------------|--9--9--9--9--9--9--9--9--|
--7--7--7--7--7--7--7--7--|--9--9--9--9--9--9--9--9--|
--7--7--7--7--7--7--7--7--|--7--7--7--7--7--7--7--7--|
--5--5--5--5--5--5--5--5--|--------------------------|
  E                          B
--------------------------|--------------------------|
--------------------------|--------------------------|
--9--9--9--9--9--9--9--9--|--------------------------|
--9--9--9--9--9--9--9--9--|--9--9--9--9--9--9--9--9--|
--7--7--7--7--7--7--7--7--|--9--9--9--9--9--9--9--9--|
--------------------------|--7--7--7--7--7--7--7--7--|


   C                                (2:52)
----------------------------------|--------------------------|
----------------------------------|--------------------------|
----------------------------------|--6--6-----6--6--6-----6--|
--10--10--10--10--10--10--10--10--|--6--6-----6--6--6-----6--|
--10--10--10--10--10--10--10--10--|--4--4-----4--4--4-----4--|
---8---8---8---8---8---8---8---8--|--------------------------|

--------------------------|--------------------------|
--------------------------|--------------------------|
--6--6-----6--6--6-----6--|--------------------------|
--6--6-----6--6--6-----6--|--7--7-----7--7--7-----7--|
--4--4-----4--4--4-----4--|--7--7-----7--7--7-----7--|
--------------------------|--5--5-----5--5--5-----5--|

--------------------------|--------------------------|
--------------------------|--------------------------|
--------------------------|--9--9-----9--9--9-----9--|
--7--7-----7--7--7-----7--|--9--9-----9--9--9-----9--|
--7--7-----7--7--7-----7--|--7--7-----7--7--7-----7--|
--5--5-----5--5--5-----5--|--------------------------|

--------------------------|--------------------------|
--------------------------|--------------------------|
--9--9-----9--9--9-----9--|--------------------------|
--9--9-----9--9--9-----9--|--9--9-----9--9--9-----9--|
--7--7-----7--7--7-----7--|--9--9-----9--9--9-----9--|
--------------------------|--7--7-----7--7--7-----7--|
                                   C#m
--------------------------------|--------------------------|
--------------------------------|--------------------------|
--------------------------------|--6--6--6--6--6--6--6--6--|
--10--10-----10--10--10-----10--|--6--6--6--6--6--6--6--6--|
--10--10-----10--10--10-----10--|--4--4--4--4--4--4--4--4--|
---8---8------8---8---8------8--|--------------------------|
  C#m                        A
--------------------------|--------------------------|
--------------------------|--------------------------|
--6--6--6--6--6--6--6--6--|--------------------------|
--6--6--6--6--6--6--6--6--|--7--7--7--7--7--7--7--7--|
--4--4--4--4--4--4--4--4--|--7--7--7--7--7--7--7--7--|
--------------------------|--5--5--5--5--5--5--5--5--|
  A                          E
--------------------------|--------------------------|
--------------------------|--------------------------|
--------------------------|--9--9--9--9--9--9--9--9--|
--7--7--7--7--7--7--7--7--|--9--9--9--9--9--9--9--9--|
--7--7--7--7--7--7--7--7--|--7--7--7--7--7--7--7--7--|
--5--5--5--5--5--5--5--5--|--------------------------|

  E                          B
--------------------------|--------------------------|
--------------------------|--------------------------|
--9--9--9--9--9--9--9--9--|--------------------------|
--9--9--9--9--9--9--9--9--|--9--9--9--9--9--9--9--9--|
--7--7--7--7--7--7--7--7--|--9--9--9--9--9--9--9--9--|
--------------------------|--7--7--7--7--7--7--7--7--|
  C
----------------------------------||
----------------------------------||
----------------------------------||
--10--10--10--10--10--10--10--10--||
--10--10--10--10--10--10--10--10--||
---8---8---8---8---8---8---8---8--||

4-¡Soy un ganador!

Intro:

   G#5              C#5              F#5              B5  A#5
e|---16--16--16--16---21--21--21--21---14--14--14--14-------------------
B|-14--14--14--14---19--19--19--19---12--12--12--12---12--14-16-14-12-11
G|----------------------------------------------------------------------
D|----------------------------------------------------------------------

   G#5              C#5              F#5               E5
e|---16--16--16--16---21--21--21--21---14--14--14--14--12~~
B|-14--14--14--14---19--19--19--19---12--12--12--12--------
G|---------------------------------------------------------
D|---------------------------------------------------------


B5        C#5       F#5      B5
No seas hostil soy modelo a seguir

B5        C#5        F#5       B5
ya estare viejo sigo siendo aprendiz



G#5         C#5         F#5         B5     A#5
esta es mi manera para mantenerme sano y realmente feliz

G#5         C#5         F#5         E5
una vida sin estres un mundo asi mejor



G#5        F#5        E5        B5
no soy un redentor tampoco el peor

G#5        F#5        E5          B5
me llamas vividor no cambiara mi humor



C#5        F#5           B5         G#5
sabes prometi jamas cambiarme de carril

         C#5        F#5          E5
pues yo me considero todo un ganador.


(solo bajo)
No hay ansiedad yo me siento audaz

este deleite es pura realidad



G#5       C#5        F#5          B5     A#5
la gente como yo no nos cautiva mucho la revolucion

G#5         C#5         F#5          E5
me conformo con mirarlo en la television



G#5      F#5         E5        B5
asi consigo amor y me siento mejor

G#5       F#5         E5          B5
me llamas vividor no cambiara mi humor



C#5        F#5           B5         G#5
sabes prometi jamas cambiarme de carril

         C#5        F#5          E5
pues yo me considero todo un ganador.


   B5              C#5     F#5          B5
e|-------------------------------------------
B|-12--14-16-14-12-11--9~--14--16-17-16-12~~~
G|-------------------------------------------
D|-------------------------------------------

   B5              C#5     F#5          B5
e|-------------------------------------------
B|-12--14-16-14-12-11--9~--14--16-17-16-19~~~
G|-------------------------------------------
D|-------------------------------------------



G#5       C#5        F#5          B5     A#5
la gente como yo no nos cautiva mucho la revolucion

G#5         C#5         F#5          E5
me conformo con mirarlo en la television



G#5      F#5         E5        B5
asi consigo amor y me siento mejor

G#5       F#5         E5          B5
me llamas vividor no cambiara mi humor



C#5        F#5           B5         G#5
sabes prometi jamas cambiarme de carril

C#5        F#5        B5       G#5
yo me prometi evitar el ser sutil

C#5        F#5        B5           G#5
yo te prometi que yo podia hacerte feliz

         C#5       F#5           E5
pues yo me considero todo un ganador.
5-Lascivamente

G#                        D#
Eres veneno para mi, eres la puerta q yo abrí,
                  G#
eres la causa del desastre?
    Fm              G#         D#       G#       D#
Y tu comprarías mi corazón al precio q le ponga yo,
                   D#      Fm    C#      D#      Fm
seria una muy buena inversión?


        C#                           D#
Y brota miel, de tus labios brota miel, no cantare pues en el
           A#m            D#
fondo eres cruel?
 C#         D#        Fm                C#
No hay lugar  para mi esta ocasión en tu intriga y atracción,
  C#      D#        Fm    C#
tienes tan solo corromper el amor
   C#            A#m       D#          Fm
Por eso solo te aguanto yo


  Fm          G#      D#
Y tu perfume infecta el aire de nuestra ciudad,
               Fm           G#      D#
yo lo respiro soy letal,
Fm          G#           D#
Y te encanta  siempre conseguir lo prohibido en carmesí te encanta
    Fm          G#          D#
tenerlo solo ahí
A#m                      D#         A#m      D#
Y lo peor q t pueda decir  es  te amo no puedo estar sin ti

C#         D#        Fm
No hay lugar para mi esta ocasión  en tu intriga y
      C#      D#        Fm    C#        D#      Fm
decepción tienes tan solo corromper la pasión
 C#           A#m         D#             Fm
Por eso solo t  aguanto yo

C#         D#        Fm                  C#
No hay lugar para mi esta ocasión  en tu intriga y decepción
        D#        Fm    C#       D#              Fm
tienes tan solo corromper la pasión
 C#           A# m          D#             Fm
Por eso solo t  aguanto yo



C#         D#        Fm                  C#
No hay lugar para mi esta ocacion en tu enredo, en tu complot tienes
 D#     Fm    C#    D#   Fm
tan solo empujarme al error

C#           A#m         D#             Fm
Por eso solo te aguanto yo?   yo

6-Un tipo de indulgencia
G1 = guitarra 1
G2 = guitarra 2

intro
G1
|-------8-11--8----------8----|--------8-----------------|
|-9--11----------11-9-11---11-|----8-9----9--8---------8-|
|-----------------------------|-9--------------10-8-10---|
|-----------------------------|--------------------------|
|-----------------------------|--------------------------|
|-----------------------------|--------------------------|x2

verso (no se hace nada)

coro (y recuerda que...)
G2
|----------|
|----------|
|----------|
|-7------9-|
|-7------9-|
|-5------7-|

|------------------|
|-8989898989898989-|
|------------------|
|------------------|
|------------------|
|------------------|x5

G1
|----------------------------------------------------------|
|----------------------------------------------------------|
|------------------1010101010101010-8888888888888888888888-|
|-1111111111111111-1010101010101010-8888888888888888888888-|
|-1111111111111111--8-8-8-8-8-8-8-8-6666666666666666666666-|
|--9-9-9-9-9-9-9-9-----------------------------------------|X4

G1
|-------8-11--8----------8----|--------8-----------------|
|-9--11----------11-9-11---11-|----8-9----9--8---------8-|
|-----------------------------|-9--------------10-8-10---|
|-----------------------------|--------------------------|
|-----------------------------|--------------------------|
|-----------------------------|--------------------------|x2

verso (quiero ya tirar...)
G2
|-----------------|
|-----------------|
|-----------------|
|-9--x9--x9--x999-|
|-9--x9--x9--x999-|
|-7--x7--x7--x777-|x4

coro (y recuerda que...)
G2
|----------|
|----------|
|----------|
|-7------9-|
|-7------9-|
|-5------7-|

|------------------|
|-8989898989898989-|
|------------------|
|------------------|
|------------------|
|------------------|x5

G1
|----------------------------------------------------------|
|----------------------------------------------------------|
|------------------1010101010101010-8888888888888888888888-|
|-1111111111111111-1010101010101010-8888888888888888888888-|
|-1111111111111111--8-8-8-8-8-8-8-8-6666666666666666666666-|
|--9-9-9-9-9-9-9-9-----------------------------------------|X4

solo
G2 (ARPEGIOS a madres)x2
|---------------------8---8---8---8---------------------------------------|
|-9----9----9----9-----9---9---9---9--11----11----11----11----13----13----|
|--10---10---10---10----10--10--10--10--12----12----12----12----14----14--|
|----11---11---11---11--------------------13----13----13----13----15----15|
|-------------------------------------------------------------------------|
|-------------------------------------------------------------------------|

|-------------|
|13----13-----|
|--14----14---|
|----15----15-|
|-------------|
|-------------|

G1 x2
|-----------------------------------------------------------------|
|---------------------------------1211109-1211109-1211109-1211109-|
|-1211109-1211109-1211109-1211109---------------------------------|
|-----------------------------------------------------------------|
|-----------------------------------------------------------------|
|-----------------------------------------------------------------|

|-------------------------------------------------------------|
|-10987-10987-10987-10987-15141312-15141312-15141312-15141312-|
|-------------------------------------------------------------|
|-------------------------------------------------------------|
|-------------------------------------------------------------|
|-------------------------------------------------------------|

outro
G1
|-------8-11--8----------8----|--------8-----------------|
|-9--11----------11-9-11---11-|----8-9----9--8---------8-|
|-----------------------------|-9--------------10-8-10---|
|-----------------------------|--------------------------|
|-----------------------------|--------------------------|
|-----------------------------|--------------------------|x2

me falta poqillo maniana lo pongo

[versos]
Tu y yo amor y odio
Y tu me tratas de un mal modo
Parece que estoy en un mal sueño
Pero en verdad eres mi dueño

Otra vez a cocinar
¿Quieres un pastel o un pay?
Tengo que aprender como mezclarlo con el placer

De chocolate o de limón cualquiera causa tentación
Muy importante el betún para el cuidado de salud
De nuestra salud

[coro]
Recuerda que vivimos siempre en un infierno
Tu problema es la obsesión, es nuestro
Pecaremos contra los estándares de bello
Solo por un buen sazón al corazón

[versos]
Yo no se si aguantaremos
No se cuanto tiempo tenemos
Solo se que junto a ti estoy atado y no puedo irme lejos

Quiero ya tirar mi cruz
Quiero eterna juventud
Por lo pronto hay que ir ojeando el menú

Para empezar un buen silón
con mucha grasa y guarnición
Mecero tráigase el licor
Para cachar a esta voz que escucho en mi interior

[coro]
Recuerda que vivimos siempre en un infierno
Tu problema es la obsesión, es nuestro
Pecaremos contra los estándares de bello
Solo por un buen sazón al corazón

7-Amnistia

INTRO X 2

           Am                                   F
e|-8--8-8-8-8-8-|-8-8-8--8--8--|-8--8--8--8--8--|-12--12-12-12-12-12-|
B|-8--8-8-8-8-8-|-8-8-10-10-10-|-10-10-10-10-10-|-13--13-13-13-13-13-|
G|-9--9-9-9-9-9-|-9-9-10-10-10-|-10-10-10-10-10-|-12--12-12-12-12-12-|
D|--------------|--------------|----------------|--------------------|
A|--------------|--------------|----------------|--------------------|
E|--------------|--------------|----------------|--------------------|

         C             G
e|-10--8--7--7-7-|-7-7-7--7-7-|
B|-13--13-8--8-8-|-8-8-8--8-8-|
G|-12--12-7--7-7-|-7-7-7--7-7-|
D|---------------|------------|
A|---------------|------------|
E|---------------|------------|

VERSO 1

       Am             F                           C
e|-8--8-8-8-8-8-|-8-8-8--8--8--|-8--8--8--8--8--|-12--12-12-12-12-12-|
B|-8--8-8-8-8-8-|-8-8-10-10-10-|-10-10-10-10-10-|-13--13-13-13-13-13-|
G|-9--9-9-9-9-9-|-9-9-10-10-10-|-10-10-10-10-10-|-12--12-12-12-12-12-|
D|--------------|--------------|----------------|--------------------|
A|--------------|--------------|----------------|--------------------|
E|--------------|--------------|----------------|--------------------|

          G
e|-10--8--7--7-7-|-7-7-7--7-7-|
B|-13--13-8--8-8-|-8-8-8--8-8-|
G|-12--12-7--7-7-|-7-7-7--7-7-|
D|---------------|------------|
A|---------------|------------|
E|---------------|------------|


e|-8--8-8-8-8-8-|-8-8-8--8--8--|-8--8--8--8--8--|-12--12-12-12-12-12-|
B|-8--8-8-8-8-8-|-8-8-10-10-10-|-10-10-10-10-10-|-13--13-13-13-13-13-|
G|-9--9-9-9-9-9-|-9-9-10-10-10-|-10-10-10-10-10-|-12--12-12-12-12-12-|
D|--------------|--------------|----------------|--------------------|
A|--------------|--------------|----------------|--------------------|
E|--------------|--------------|----------------|--------------------|


e|-10--8--7--7-7-|-7-7-7--7-7-|-5--5-5-5-5-5-|-5-5-8--8-8--|
B|-13--13-8--8-8-|-8-8-8--8-8-|-6--6-6-6-6-6-|-6-6-8--8-8--|
G|-12--12-7--7-7-|-7-7-7--7-7-|-5--5-5-5-5-5-|-5-5-9--9-9--|
D|---------------|------------|--------------|-------------|
A|---------------|------------|--------------|-------------|
E|---------------|------------|--------------|-------------|

e|-8-8-8--8-8-|-7--7-7-7-7-7-|-7-7-5--5-5-|-5-5-5--5-5-|
B|-8-8-8--8-8-|-8--8-8-8-8-8-|-8-8-6--6-6-|-6-6-6--6-6-|
G|-9-9-9--9-9-|-9--9-9-9-9-9-|-9-9-5--5-5-|-5-5-5--5-5-|
D|------------|--------------|------------|------------|
A|------------|--------------|------------|------------|
E|------------|--------------|------------|------------|

e|-5--5-5-5-5-5-|-5-5-8--8-8|-8-8-8--8-8-|-7--7-7-7-7-7-|
B|-6--6-6-6-6-6-|-6-6-8--8-8|-8-8-8--8-8-|-8--8-8-8-8-8-|
G|-5--5-5-5-5-5-|-5-5-9--9-9|-9-9-9--9-9-|-9--9-9-9-9-9-|
D|--------------|-----------|------------|--------------|
A|--------------|-----------|------------|--------------|
E|--------------|-----------|------------|--------------|

e|-7-7-5--5-5-|-5-5-7--7-7-7-7-|--5--|
B|-8-8-6--6-6-|-6-6-8--8-8-8-8-|--6--|
G|-9-9-5--5-5-|-5-5-7--7-7-7-7-|--5--|
D|------------|----------------|-----|
A|------------|----------------|-----|
E|------------|----------------|-----|

INTRO X 2

e|-8--8-8-8-8-8-|-8-8-8--8--8--|-8--8--8--8--8--|-12--12-12-12-12-12-|
B|-8--8-8-8-8-8-|-8-8-10-10-10-|-10-10-10-10-10-|-13--13-13-13-13-13-|
G|-9--9-9-9-9-9-|-9-9-10-10-10-|-10-10-10-10-10-|-12--12-12-12-12-12-|
D|--------------|--------------|----------------|--------------------|
A|--------------|--------------|----------------|--------------------|
E|--------------|--------------|----------------|--------------------|


e|-10--8--7--7-7-|-7-7-7--7-7-|
B|-13--13-8--8-8-|-8-8-8--8-8-|
G|-12--12-7--7-7-|-7-7-7--7-7-|
D|---------------|------------|
A|---------------|------------|
E|---------------|------------|


VERSO 2

 ES MUCHO PRETENDER...

       Am             F                           C
e|-8--8-8-8-8-8-|-8-8-8--8--8--|-8--8--8--8--8--|-12--12-12-12-12-12-|
B|-8--8-8-8-8-8-|-8-8-10-10-10-|-10-10-10-10-10-|-13--13-13-13-13-13-|
G|-9--9-9-9-9-9-|-9-9-10-10-10-|-10-10-10-10-10-|-12--12-12-12-12-12-|
D|--------------|--------------|----------------|--------------------|
A|--------------|--------------|----------------|--------------------|
E|--------------|--------------|----------------|--------------------|

          G
e|-10--8--7--7-7-|-7-7-7--7-7-|
B|-13--13-8--8-8-|-8-8-8--8-8-|
G|-12--12-7--7-7-|-7-7-7--7-7-|
D|---------------|------------|
A|---------------|------------|
E|---------------|------------|


e|-8--8-8-8-8-8-|-8-8-8--8--8--|-8--8--8--8--8--|-12--12-12-12-12-12-|
B|-8--8-8-8-8-8-|-8-8-10-10-10-|-10-10-10-10-10-|-13--13-13-13-13-13-|
G|-9--9-9-9-9-9-|-9-9-10-10-10-|-10-10-10-10-10-|-12--12-12-12-12-12-|
D|--------------|--------------|----------------|--------------------|
A|--------------|--------------|----------------|--------------------|
E|--------------|--------------|----------------|--------------------|


e|-10--8--7--7-7-|-7-7-7--7-7-|-5--5-5-5-5-5-|-5-5-8--8-8--|
B|-13--13-8--8-8-|-8-8-8--8-8-|-6--6-6-6-6-6-|-6-6-8--8-8--|
G|-12--12-7--7-7-|-7-7-7--7-7-|-5--5-5-5-5-5-|-5-5-9--9-9--|
D|---------------|------------|--------------|-------------|
A|---------------|------------|--------------|-------------|
E|---------------|------------|--------------|-------------|

e|-8--8-8-8-8-8-|-8-8-8--8--8--|-8--8--8--8--8--|-12--12-12-12-12-12-|
B|-8--8-8-8-8-8-|-8-8-10-10-10-|-10-10-10-10-10-|-13--13-13-13-13-13-|
G|-9--9-9-9-9-9-|-9-9-10-10-10-|-10-10-10-10-10-|-12--12-12-12-12-12-|
D|--------------|--------------|----------------|--------------------|
A|--------------|--------------|----------------|--------------------|
E|--------------|--------------|----------------|--------------------|

e|-10--8--7--7-7-|-7-7-7--7-7-|-5--5-5-5-5-5-|-5-5-8--8-8--|
B|-13--13-8--8-8-|-8-8-8--8-8-|-6--6-6-6-6-6-|-6-6-8--8-8--|
G|-12--12-7--7-7-|-7-7-7--7-7-|-5--5-5-5-5-5-|-5-5-9--9-9--|
D|---------------|------------|--------------|-------------|
A|---------------|------------|--------------|-------------|
E|---------------|------------|--------------|-------------|

e|-8--8-8-8-8-8-|-8-8-8--8--8--|-8--8--8--8--8--12--12-12-12-12-12-12-|
B|-8--8-8-8-8-8-|-8-8-10-10-10-|-10-10-10-10-10-13--13-13-13-13-13-13-|
G|-9--9-9-9-9-9-|-9-9-10-10-10-|-10-10-10-10-10-12--12-12-12-12-12-12-|
D|--------------|--------------|--------------------------------------|
A|--------------|--------------|--------------------------------------|
E|--------------|--------------|--------------------------------------|


e|-10--8--7--7-7-|-7-7-7--7-7-|
B|-13--13-8--8-8-|-8-8-8--8-8-|
G|-12--12-7--7-7-|-7-7-7--7-7-|
D|---------------|------------|
A|---------------|------------|
E|---------------|------------|

e|-8-8-8--8-8-|-7--7-7-7-7-7-|-7-7-5--5-5-|-5-5-5--5-5-|
B|-8-8-8--8-8-|-8--8-8-8-8-8-|-8-8-6--6-6-|-6-6-6--6-6-|
G|-9-9-9--9-9-|-9--9-9-9-9-9-|-9-9-5--5-5-|-5-5-5--5-5-|
D|------------|--------------|------------|------------|
A|------------|--------------|------------|------------|
E|------------|--------------|------------|------------|

e|-5--5-5-5-5-5-|-5-5-8--8-8|-8-8-8--8-8-|-7--7-7-7-7-7-|
B|-6--6-6-6-6-6-|-6-6-8--8-8|-8-8-8--8-8-|-8--8-8-8-8-8-|
G|-5--5-5-5-5-5-|-5-5-9--9-9|-9-9-9--9-9-|-9--9-9-9-9-9-|
D|--------------|-----------|------------|--------------|
A|--------------|-----------|------------|--------------|
E|--------------|-----------|------------|--------------|

e|-7-7-5--5-5-|-5-5-7--7-7-7-7-|--5--|
B|-8-8-6--6-6-|-6-6-8--8-8-8-8-|--6--|
G|-9-9-5--5-5-|-5-5-7--7-7-7-7-|--5--|
D|------------|----------------|-----|
A|------------|----------------|-----|
E|------------|----------------|-----|

8-Agradable locura temporal

INTRO: C C – Am Am – F F - C C

1)                               2)
E!---6-4-------------           E!---6-4-------------
B!-------6-7-6-----6-           B!-------6-7-6-----6-
G!-6-----------6-8--- *2        G!-5-----------6-8--- *2
D!-------------------           D!-------------------

3)                               4)
E!-----------------------       E!—-6-4------------------6-4-----
B!-----------------------       B!------6-7-6-----6----------6---
G!—-6-8--6-8-6-8--10-6-8- *2    G!-6----------6-8------6-------6-
D!-6---------------------       D!-------------------------------


C                              Am
Eres tensa, estas de muy mal humor, woh
                             F
Te haces cosas que no entiendo oh, woh
              C                   Am
Tienes que calmarte, tienes que dejar woh
                        F
De gritar cada momento oh, woh
               C
De patear las cosas que no merecen ser pateadas


CORO:
Am                                 F
Tu locura temporal tiene que remunerar, woh
                  G
Que tu mala energia se use a nuestro favor
Am                                      F
No destruyas ese ardor, esta malversado oh, woh
               G                        F
Mírame a los ojos y date cuenta que soy yo
         G
Y date cuenta que soy yo



C – Am – F - C



C                              Am
Eres tensa, estas de muy mal humor, woh
                         F
Dices cosas sin sentido oh, woh
               C                  Am
Tienes que bajarle, tienes que dejar woh
                        F
De decir que esto termino, woh
              C
Para de insultarme, que ya no aguanto una ofensa mas




CORO:
Am                                 F
Tu locura temporal tiene que remunerar, woh
                  G
Que tu mala energia se use a nuestro favor
Am                                      F
No destruyas ese ardor, esta malversado oh, woh
               G                        F
Mírame a los ojos y date cuenta que soy yo
         G
Y date cuenta que soy yo


    Am         C
Adicción emocional
      Am             Em
Sube presión arterial.
        Am           C
Se que todo es eventual
      Am           Em
No lo tomo personal
      Am        C
Adicción emocional
      Am          Em
Sube presión arterial.
        Am           C
Se que todo es eventual
     Am       Em
Anestesia general

9-Espejismos y Visiones

intro
|----6-4-6-----6-4-6-----6-4-6-----6-4-6|
|-7---------6---------4-----------------|
|-------------------------------4-------|
|---------------------------------------|
|---------------------------------------|
|---------------------------------------|x2

verso (frio amanecera...)
|-----------|-----------|---2-------|-----------|
|-----------|-----------|------2----|---4--2----|
|---8--6----|---8--6----|--------3-1|--------3-1|
|--------8-6|--------8-6|-----------|-----------|
|-----------|-----------|-----------|-----------|
|-----------|-----------|-----------|-----------|x4

verso 2 (no me importa...)
|----------------------------------|
|----------------------------------|
|-8-x8-8----------11-x11-11--------|
|-8-x8-8--9-x9-9--11-x11-11--8-x8-8|
|-6-x6-6--9-x9-9---9-x-9--9--8-x8-8|
|---------7-x7-7-------------6-x6-6|x2

coro (hay momentos...)
|----------------------------------|
|----------------------------------|
|-888888--------111111111111-------|
|-888888-999999-111111111111-888888|
|-666666-999999--9-9-9-9-9-9-888888|
|--------777777--------------666666|x2

|----6-4-6-----6-4-6-----6-4-6-----6-4-6|
|-7---------6---------4-----------------|
|-------------------------------4-------|
|---------------------------------------|
|---------------------------------------|
|---------------------------------------|x2

verso (al salir a caminar...)
|-----------|-----------|---2-------|-----------|
|-----------|-----------|------2----|---4--2----|
|---8--6----|---8--6----|--------3-1|--------3-1|
|--------8-6|--------8-6|-----------|-----------|
|-----------|-----------|-----------|-----------|
|-----------|-----------|-----------|-----------|x4

verso 2 (no me importa...)
|----------------------------------|
|----------------------------------|
|-8-x8-8----------11-x11-11--------|
|-8-x8-8--9-x9-9--11-x11-11--8-x8-8|
|-6-x6-6--9-x9-9---9-x-9--9--8-x8-8|
|---------7-x7-7-------------6-x6-6|x2

coro (no comprendo...)
|----------------------------------|
|----------------------------------|
|-888888--------111111111111-------|
|-888888-999999-111111111111-888888|
|-666666-999999--9-9-9-9-9-9-888888|
|--------777777--------------666666|x2

coro (no habra...)
|----------------------------------|
|----------------------------------|
|-888888--------111111111111-------|
|-888888-999999-111111111111-888888|
|-666666-999999--9-9-9-9-9-9-888888|
|--------777777--------------666666|x2


10-Quinta Real


Estrofa I

F#5                      B5     C#5
Creo que el cielo no escuchaba, no
F#5                 B5     C#5
Cuando gritabas mi nombre, con razón
B5              F#5  C#5
Mi mano derecha odia con rencor
B5                             C#5
A la izquierda pues cualquiera comete un error

EStrofa II

F#5                   B5     C#5
Deja me ser yo el que hable, pooor favor
F#5               B5    C#5
Como quiera tu te robas la atención
B5                  F#5 C#5
Trata de ya no creer en cosas que no tienen valor
B5                     C#5
Recomiendo olvidarnos, resulte mejor

Coro

B5                  F#5
A nadie le interesa tu drama 170
B5                    F#5   C#5
Sécate los ojos ya no tengo cosas de amor que decir
B5                        F#5
Fíjate no estoy dispuesto a desperdiciar este momento
B5                     C#5
Llórame mas y compondré una canción de amor

Estrofa I

F#5              B5    C#5
Desgraciadamente somos tan explícitos
F#5               B5    C#5
Reclamamos los defectos de nosotros mismos
B5                 F#5  C#5
Reflejamos todo aquello que nos causo dolor
B5                         C#5
Es por eso que detengo por ti mi afición

F#5               B5    C#5
Ignoramentemente somos tan artísticos
F#5                B5   C#5
Que mentimos inclusive cuando dormimos
 B5           F#5    C#5
¿De donde sacaremos tanta imaginación?
B5                          C#5
Es por eso que detengo este seducción

Coro

Esta es la única manera de tomarte a la ligera
Se que no es la forma y cicatrices
Vas a tener que borrar
Mientras yo estaré tramando, calma estoy documentando
Todo va bien, viento en popa la canción de amor

( B5-F#5-C#5 )

Para ya, seca tus lagrimas, no se que decir
Se que pude haber sido gentil, un poco sutil
Creo ya, nada sentirás, no digas mas
No te quiero lastimar, no

Para ya, seca tus lagrimas, no se que decir
Se que pude haber sido gentil, un poco sutil
Creo ya, nada sentirás, no digas mas
No te quiero lastimar, no digas más
No digas mas, no no, no digas más.




Uacj  Icb   Medicina 
Добавлено: 14.06.2013
Другие материалы по этой песне:
  • Аккорды и текст

Страница создана 14.06.2013
http://primanota.ru/panda/poetics-acto-2-chords.htm
Привет, Гость.
Предлагаем пройти революционный курс по гитаре.
Подарок от PrimaNota.Ru, забирай!