PrimaNota.ru - самый крупный в мире бесплатный архив песенных текстов, аккордов, табулатур и нот


Panda - Narcisista Por Exelencia - таба, видео

Регистрация Запомнить меня
Войти через:  Facebook Google Twitter Vk Yandex Mail.ru

Panda - Narcisista Por Exelencia - таба, видео

Печатать
Просмотров: 119
Уроки эстрадного вокала в Санкт-Петербурге
PANDA: NARCISTA POR EXELENCIA

(powered by: Skarfeis)


la rola empieza con palm-mute con estas notas:

tiempo: (00:00)

ESTO SE TOCA 2 VECES JUNTO CON EL DE ABAJO

|--------------------------------------------|
|--------------------------------------------|
|--------------------------------------------|
|-----------------5-5-6-6------6-6-5-5-6-6---|
|-3-3-----1-3-3-------------3----------------|

---------------------------------|
---------------------------------|
---------------------------------|
---------------------------------|
-----6-6-5-5----------------5-5--|
--3-----------3-3----1-3-3-------|

AKI EMPIEZA LA GUITARRA RASGUEANDO CON DISTORCION


(00:10)
|-------------------------------------------------------------|
|-------------------------------------------------------------|
|---------------7-7---------------7-7-8-8-------8-8-7-7-8-8---|
|-5-5----3-5-5--7-7--5-5---3-5-5--7-7-8-8----5--8-8-7-7-8-8---|
|-5-5----3-5-5--5-5--5-5---3-5-5--5-5-6-6----5--6-6-5-5-6-6---|
|-3-3----1-3-3-------3-3---1-3-3-------------3----------------|

-----------------------------------|
-----------------------------------|
-----8-8-7-7----------------7-7----|
--5--8-8-7-7--5-5----3-5-5--7-7----|
--5--6-6-5-5--5-5----3-5-5--5-5----|
--3-----------3-3----1-3-3---------|

|------------------------------------------------------------|
|------------------------------------------------------------|
|---------------7-7-8-8-------8-8-7-7-8-8------8-8-7-7-------|
|-5-5---3-5-5---7-7-8-8----5--8-8-7-7-8-8---5--8-8-7-7-------|
|-5-5---3-5-5---5-5-6-6----5--6-6-5-5-6-6---5--6-6-5-5-------|
|-3-3---1-3-3--------------3----------------3----------------|


"sabes que es la inseguridad, sabes lo que es sentir la soledad,
|------------------------------------------------------------------|
|------------------------------------------------------------------|
|----------------------------7-8-----------------------------------|
|--5-5-----------------------7-8-------------------------3---5-5---|
|--5-5-----------------------5-6-------------------------3---5-5---|
|--3-3---------------------------------------------------1---3-3---|

mi peor error fue haber aceptado mi fealdad"
-------------------------------------------------|
-------------------------------------------------|
-----------------------------8-8-----------------|
-----------------------------8-8-----------------|
-----------------------------6-6-----------------|
--------------------------------------------15/3-|

(00:33)

por que ahora ya no tengo donde esconder el miedo y el miedo sigue vivo,
se la vive aqui conmigo
|----------------------------------------------------------------|
|----------------------------------------------------------------|
|----------------------------88--77--88--77--88--77--88--10-10---|
|--55555555--3--55555555--3--xx--xx--xx--xx--xx--xx--xx---x--x---|
|--55555555--3--55555555--3--66--55--66--55--66--55--66---8--8---|
|--33333333--1--33333333--1--------------------------------------|


yo me baso en la apariencia, con placer y sin conciencia, esperando
que algun dia tu atencion fijes en...
|----------------------------------------------------------------|
|----------------------------------------------------------------|
|----------------------------88--77--88--77--88--77--88--10-10---|
|--55555555--3--55555555--3--xx--xx--xx--xx--xx--xx--xx---x--x---|
|--55555555--3--55555555--3--66--55--66--55--66--55--66---8--8---|
|--33333333--1--33333333--1--------------------------------------|


(00:46)

mi!!!es por eso que ahora visto asi, quiero ser elegante y estilero hasta


|---------------------------------------------------------------|
|---------------------------------------------------------------|
|--5-5-5---7-8--888--10-------10--12-12-12-----|     |se toca 2-|
|--5-5-5---7-8--888--10--888--10--12-12-12-----| <--------------|veces y empieza
|--3-3-3---5-6--666--8---888--8---10-10-10----------------------|     |la ke sigue
|------------------------666------------------------------------|


el fin,no poder proyectarlo, me lo tengo que creer...

|-----------------------------------------------------------------|
|-----------------------------------------------------------------|
|--5-5-5---7-8--888--10-------10--12-12-12-----5-5-5---7-8--------|
|--5-5-5---7-8--888--10--888--10--12-12-12-----5-5-5---7-8---3-3--|
|--3-3-3---5-6--666--8---888--8---10-10-10-----3-3-3---5-6---3-3--|
|------------------------666---------------------------------1-1--|


(01:05)

suponiendo que en la gente la belleza es
|----------------------------------------------|
|----------------------------------------------|
|--------88888-----------10-10-10-10-10--------|
|-55555--88888---88888---10-10-10-10-10--------|
|-55555--66666---88888---8--8--8--8--8---------|
|-33333----------66666-------------------------|

natural, pues belleza es la palabra que aun no logro concretar

---------------------------------------------------------|
---------------------------------------------------------|
---------88888----------10-10-10-10-10-------------------|
-55555---88888--88888---10-10-10-10-10------------3-3----|
-55555---66666--88888---8--8--8--8--8-------------3-3----|
-33333----------66666-----------------------------1-1----|


disfraz, disfraz, narcicista artificial,
|------------------------------------------------|
|------------------------------------------------|
|---------88888-----------10-10-10-10-10---------|
|--55555--88888---88888---10-10-10-10-10---------|
|--55555--66666---88888---8--8--8--8--8----------|
|--33333----------66666--------------------------|

   disfraz, disfraz, todo es mental

----------------------------------|
----------------------------------|
---------88888--------------------|
--55555--88888---88888888---------|
--55555--66666---88888888---------|
--33333----------66666666---------|


AKI SE TOCA DE NUEVO EL RASGUEO CON DISTORCION

(01:29)

|-------------------------------------------------------------|
|-------------------------------------------------------------|
|---------------7-7---------------7-7-8-8-------8-8-7-7-8-8---|
|-5-5----3-5-5--7-7--5-5---3-5-5--7-7-8-8----5--8-8-7-7-8-8---|
|-5-5----3-5-5--5-5--5-5---3-5-5--5-5-6-6----5--6-6-5-5-6-6---|
|-3-3----1-3-3-------3-3---1-3-3-------------3----------------|

-----------------------------------|
-----------------------------------|
-----8-8-7-7----------------7-7----|
--5--8-8-7-7--5-5----3-5-5--7-7----|
--5--6-6-5-5--5-5----3-5-5--5-5----|
--3-----------3-3----1-3-3---------|

|------------------------------------------------------------|
|------------------------------------------------------------|
|---------------7-7-8-8-------8-8-7-7-8-8------8-8-7-7-------|
|-5-5---3-5-5---7-7-8-8----5--8-8-7-7-8-8---5--8-8-7-7-------|
|-5-5---3-5-5---5-5-6-6----5--6-6-5-5-6-6---5--6-6-5-5-------|
|-3-3---1-3-3--------------3----------------3----------------|

(01:41)

como me peinare esta noche,
que ropa me combinara mejor,
tener tu interes, convertirlo en amor..

quisiera saner que piensas,
me vere bien o acaso me veO mal,
se que es patetico pero en mi es normal

|------------------------------------------------------------|
|---------AKI LLEVA UN PUNTEO QUE NO PIENSO SACARLO YA QUE---|
|---------NO LO ESCUCHO MUY BIEN Y YA ME ROMPI LA CABEZA-----|
|---------INTENTANDOLE, SI LO KIEREN SAKENLO...--------------|
|------------Y ESTO VA CON LO DE ARRIBA----------------------|
|------------------------------------------------------------|
|------------------------------------------------------------|


(02:05)

suponiendo que en la gente la belleza es

|----------------------------------------------|
|----------------------------------------------|
|--------88888-----------10-10-10-10-10--------|
|-55555--88888---88888---10-10-10-10-10--------|
|-55555--66666---88888---8--8--8--8--8---------|
|-33333----------66666-------------------------|

natural, pues belleza es la palabra que aun no logro concretar

---------------------------------------------------------|
---------------------------------------------------------|
---------88888----------10-10-10-10-10-------------------|
-55555---88888--88888---10-10-10-10-10------------3-3----|
-55555---66666--88888---8--8--8--8--8-------------3-3----|
-33333----------66666-----------------------------1-1----|


disfraz, disfraz, narcicista artificial,
|------------------------------------------------|
|------------------------------------------------|
|---------88888-----------10-10-10-10-10---------|
|--55555--88888---88888---10-10-10-10-10---------|
|--55555--66666---88888---8--8--8--8--8----------|
|--33333----------66666--------------------------|

   disfraz, disfraz, todo es mental

----------------------------------|
----------------------------------|
---------88888--------------------|
--55555--88888---88888888---------|
--55555--66666---88888888---------|
--33333----------66666666---------|


(02:28)

AKI VA LA PARTE DEL PIANO.


(02:43)

INICIA EL SOLO:

|-------------------------------------------------|
|--11~---------8~----------11~--------------------|
|-------------------------------------10~---------|
|-------------------------------------------------|
|-------------------------------------------------|
|-------------------------------------------------|

|-------------------------------------------------|
|--11~---------8~----------11~--------------16~---|
|-------------------------------------------------|
|-------------------------------------------------|
|-------------------------------------------------|
|-------------------------------------------------|


|-----------------------------------------------------|
|--11-10----------------------10---11-----------------|
|----------12-10-12-------------------12-10-12--------|
|--------------------12------------------------12-----|
|-----------------------------------------------------|
|-----------------------------------------------------|

------------------------------------------------------|
--11-10-----------------------------------------------|
--------12-10-12--------8--10-------------------------|
-----------------12------------12--10--12--10---------|
------------------------------------------------------|
------------------------------------------------------|


------------------------------------------------------|
--11-10----------------------10---11------------------|
----------12-10-12-------------------12-10-12---------|
--------------------12------------------------12------|
------------------------------------------------------|
------------------------------------------------------|

------------------------------------------------------|
--11-10-----------------------------------------------|
--------12-10-12--------8--10-------------------------|
-----------------12------------12--10--12--10---------|
------------------------------------------------------|
------------------------------------------------------|

|----------------11-10------------------------11-10-11-11/13-11 10----|
|-11-10----------------11------11-10----------------------------------|
|-------12-10-12---------------------12-10-12-------------------------|
|---------------------------------------------------------------------|
|---------------------------------------------------------------------|
|---------------------------------------------------------------------|

-----------------11-10-----><-|
---11-10---------------11--><-|
---------12-10-12----------><-|  ><-- aki lleva una
---------------------------><-|      escalita y no
---------------------------><-|      c cual es
---------------------------><-|


(03:20)
AKI EMPIEZA DE NUEVO A CANTAR PERO AUN CONTINUA EL SOLO DE FONDO.

suponiendo que en la gente la belleza es

|----------------------------------------------|
|----------------------------------------------|
|--------88888-----------10-10-10-10-10--------|
|-55555--88888---88888---10-10-10-10-10--------|
|-55555--66666---88888---8--8--8--8--8---------|
|-33333----------66666-------------------------|

natural, pues belleza es la palabra que aun no logro concretar

---------------------------------------------------------|
---------------------------------------------------------|
---------88888----------10-10-10-10-10-------------------|
-55555---88888--88888---10-10-10-10-10------------3-3----|
-55555---66666--88888---8--8--8--8--8-------------3-3----|
-33333----------66666-----------------------------1-1----|


disfraz, disfraz, narcicista artificial,
|------------------------------------------------|
|------------------------------------------------|
|---------88888-----------10-10-10-10-10---------|
|--55555--88888---88888---10-10-10-10-10---------|
|--55555--66666---88888---8--8--8--8--8----------|
|--33333----------66666--------------------------|

   disfraz, disfraz, todo es mental

----------------------------------|
----------------------------------|
---------88888--------------------|
--55555--88888---88888888---------|
--55555--66666---88888888---------|
--33333----------66666666---------|


EL SOLO DE FONDO TERMINA CON ESTO QUE VA EN VEZ DE LA ESCALA
DEL SOLO:

|------------------------------------------|
|-10-11-----11---10-11----11-----10/0------|
|--------12------------12------------------|
|------------------------------------------|
|------------------------------------------|
|------------------------------------------|
Добавлено: 23.04.2012
Другие материалы по этой песне:

Страница создана 23.04.2012
http://primanota.ru/panda/narcisista-por-exelencia-chords.htm
Привет, Гость.
Предлагаем пройти революционный курс по гитаре.
Подарок от PrimaNota.Ru, забирай!