PrimaNota.ru - самый крупный в мире бесплатный архив песенных текстов, аккордов, табулатур и нот


Panda - Narcicista Por Excelencia - бас-таба, видео

Регистрация Запомнить меня
Войти через:  Facebook Google Twitter Vk Yandex Mail.ru

Panda - Narcicista Por Excelencia - бас-таба, видео

Печатать
Просмотров: 135
Уроки эстрадного вокала в Санкт-Петербурге
Afinada en bemol (medio tono atrás)

0:11 Intro:
Despues de la guitarra

g/---------------/--------------/-------------/----------------/
D/---------------/--------------/-------------/----------------/x2
A/------------6-6/-----------6-6/-7--7--7-7-6-6/-7--7--7-7-6-6-/
E/4--4--2-4-4----/4--4--2-4-4---/------7------/-------7--------/

0:22 Sabes que es la inseguridad....aceptado mi fealdad

g/------/-----—--/--------/------/----------------/
D/------/-----—--/-----—--/------/----------------/
A/------/-6--7—7-/-----—--/--7-7-/-----6h8--------/
E/-4--4-/--------/-2--4—4-/------/-2/4-----4/2----/

0:34 Porque ahora yo no tengo...

g/---------/x2  /-—---------/x2
D/-----———-/    /-—---------/
A/-———-----/    /-6—7-7-7---/
E/-2—4—4—4-/    /-----------/

0:46 En mi...

g/---—-—--------------------------------------/
D/---—-—--------------------------------------/3x la cuarta vez
A/--4—4—4-6-7777--99-------99-9h11-11-11-11-11/es diferente
E/--------------------7777--------------------/

g/---------------------/
D/---------------------/
A/--4-4-4-6-7----------/
E/--------------2-2----/


1:08 CORO:
Suponiendo que en la gente……

g/---------------------------------/
D/---------------------------------/
A/---------777777----------999999--/
E/-444444----------777777----------/

Pues belleza es la palabra……

g/----------------------------------—------/
D/-------------------------------------—---/
A/----------77777777-----------9999--7—-6--/
E/-4444444------------7777777--------------/

1:20 Disfraz, disfraz, narcisista artificial ...todo es mental…

g/---------------------------------/--------------------------/
D/---------------------------------/--------------------------/
A/-77777------------99999----------/-777777-------------------/
E/--------77777777-----------44444-/---------77777--222222222-/

Intro 1:31

1:42
¿como me peinaré esta noche?....

g/-----------/4x  /-—---------/x4
D/--------——-/    /-—---------/
A/-—---—-----/    /-6—77777777/
E/-2—44444444/    /-----------/

Coro 2:07
Suponiendo que en la gente……

g/---------------------------------/
D/---------------------------------/
A/---------777777----------999999--/
E/-444444----------777777----------/

Pues belleza es la palabra……

g/----------------------------------—------/
D/-------------------------------------—---/
A/----------77777777-----------9999--7—-6--/
E/-4444444------------7777777--------------/

2:20 Disfraz, disfraz, narcisista artificial ...todo es mental…

g/---------------------------------/--------------------------/
D/---------------------------------/--------------------------/
A/-77777------------99999----------/-777777-------------------/
E/--------77777777-----------44444-/---------77777--222222222-/



2:29

Luego sigue el solo del piano por algunas notas del bajo
que van así

g/--------/------------/
D/--------/------------/
A/---7----/-11--7------/
E/-6---7--/--------7---/

Entra la guitarra 2:44 y se toca esto


g/-----------/x2  /-—-----------------/x2
D/--------——-/    /-—-----------------/
A/-—---—-----/    /-6—7777777777777777/
E/-2—44444444/    /-------------------/

2:57En el solo de la guitarra se tocan lo mismo que en el coro

3:21 la canción termina con el coro

SALUDOS A TODA LA BANDA Q LE GUSTA PXNDX NOS VEMOS
Добавлено: 24.02.2012
Другие материалы по этой песне:

Страница создана 24.02.2012
http://primanota.ru/panda/narcicista-por-excelencia-chords.htm
Привет, Гость.
Предлагаем пройти революционный курс по гитаре.
Подарок от PrimaNota.Ru, забирай!