PrimaNota.ru - самый крупный в мире бесплатный архив песенных текстов, аккордов, табулатур и нот


Panda - Adheridos Separados - аккорды и текст, таба, видео

Регистрация Запомнить меня
Войти через:  Facebook Google Twitter Vk Yandex Mail.ru

Panda - Adheridos Separados - аккорды и текст, таба, видео

Печатать
Просмотров: 62
Adheridos Separados
Panda
OJO GUITARRA DE R2D2 AFINACION: BEMOL, GUITARRA PEPE CAPO EN EL 4TO TRASTE Y AFINACIÓN BEMOL
INTRO
R2D2
D#||----------|---------------------------------|
A#||----------|---------------------------------|
F#||-----1s-4-|--4--4--4-4-4s-8-8b--8-6~--6-6-4-|
C#||----------|---------------------------------|
G#||----------|---------------------------------|
D#||----------|---------------------------------|


--------------------------------------|--------------------------------------|
--------------------------------------|-------------12-----------12----------|
--4--4--4-4-4s-8-8b--8----------------|------11------------11-----------11---|
-----------------------11~--11-11-11S-|--14------14-----14----14----14-------|
--------------------------------------|--------------------------------------|
--------------------------------------|--------------------------------------|

-----------------------------------------|-------------------|
---------12-----14--14-16b--16-----------|-------------------|
-------------------------------16---16\--|-------------------|
--13s-14-----14--------------------------|-------------------|
-----------------------------------------|-------------------|
-----------------------------------------|-------------------|
Pepe

D#||-------|--0--0--0-0-0--0-0-0-2--2-2-2-|--0--0--0-0-0--0-0-0-2--2-2-2-|
A#||-------|--1--1--1-1-1--0-0-0-3--3-3-3-|--1--1--1-1-1--0-0-0-3--3-3-3-|
F#||-------|--0--0--0-0-0--0-0-0-2--2-2-2-|--0--0--0-0-0--0-0-0-2--2-2-2-|
C#||-------|--2--2--2-2-2--2-2-2-0--0-0-0-|--2--2--2-2-2--2-2-2-0--0-0-0-|
G#||-------|--3--3--3-3-3--2-2-2-0--0-0-0-|--3--3--3-3-3--2-2-2-0--0-0-0-|
D#||-------|---------------0-0-0----------|---------------0-0-0----------|

--0--0--0-0-0--0-0-0-0--0-0--|--0--0--0-0-0-2--2-2-2--2-2--|----------------|
--1--1--1-1-1--1-1-1-1--1-1--|--1--1--1-1-1-3--3-3-3--3-3--|----------------|
--2--2--2-2-2--2-2-2-2--2-2--|--0--0--0-0-0-2--2-2-2--2-2--|----------------|
--2--2--2-2-2--2-2-2-2--2-2--|--2--2--2-2-2-0--0-0-0--0-0--|----------------|
--0--0--0-0-0--0-0-0-0--0-0--|--3--3--3-3-3-0--0-0-0--0-0--|----------------|
--0--0--0-0-0--0-0-0-0--0-0--|-----------------------------|----------------|
EL VERSO ES PURO BAJO Y R2D2 APLAUDE EN LA PARTE DONDE DICE: PENSE QUE HABIA MADURADO.........
PEPE TOCA ESTO

--2-------3--3--3----3--3--3----3----|------------------2--L------0-|
--3-------3--3--3----3--3--3----3--5-|--5------L------3----L------0-|
--2-------5--5--5----5--5--5----5--5-|--5------L----2------L------0-|
--0------(5)-5-(5)--(5)-5-(5)--(5)-5-|--5------L--0--------L------2-|
-----------------------------------3-|--3------L--------------------|
-------------------------------------|------------------------------|

   ^       ^  ^  ^ v ^  ^ v     ^       ^  ^  ^ v ^  ^ v
--(0)------0--2--x-3-3--x-0-|--(0)------0--2--x-3-3--3-3-|
---0-------0--3--x-3-3--x-0-|---0-------0--3--x-3-3--3-3-|
---0-------0--2--x-5-5--x-0-|---0-------0--2--x-5-5--5-5-|
---2-------2--0--x-5-5--x-2-|---2-------2--0--x-5-5--5-5-|
---2---------------3-3--x---|---2---------------3-3--3-3-|
---0------------------------|---0------------------------|

  ^       ^  v  ^    ^  v  ^    ^  v    ^       v  ^ v ^  ^ v ^ v ^ v
--2-------3--3--3----3--3--3----3----|-----------------2--2-2-2-2-2-2-|
--3-------3--3--3----3--3--3----3--5-|--5----L--5--5-5-3--3-3-3-3-3-3-|
--2-------5--5--5----5--5--5----5--5-|--5----L--5--5-5-2--2-2-2-2-2-2-|
--0------(5)-5-(5)--(5)-5-(5)--(5)-5-|--5----L-(5)-5-5-0--0-0-0-0-0-0-|
-----------------------------------3-|--3----L-(3)-3-3----------------|
-------------------------------------|--------------------------------|
CORO
PEPE

--0--0--0-0-0--0-0-0-2--2-2-2-|--0--0--0-0-0--0-0-0-2--2-2-2-|
--1--1--1-1-1--0-0-0-3--3-3-3-|--1--1--1-1-1--0-0-0-3--3-3-3-|
--0--0--0-0-0--0-0-0-2--2-2-2-|--0--0--0-0-0--0-0-0-2--2-2-2-|
--2--2--2-2-2--2-2-2-0--0-0-0-|--2--2--2-2-2--2-2-2-0--0-0-0-|
--3--3--3-3-3--2-2-2-0--0-0-0-|--3--3--3-3-3--2-2-2-0--0-0-0-|
---------------0-0-0----------|---------------0-0-0----------|

--0--0--0-0-0--0-0-0-0--0-0--|--0--0--0-0-0-2--2-2-2--2-2--|
--1--1--1-1-1--1-1-1-1--1-1--|--1--1--1-1-1-3--3-3-3--3-3--|
--2--2--2-2-2--2-2-2-2--2-2--|--0--0--0-0-0-2--2-2-2--2-2--|
--2--2--2-2-2--2-2-2-2--2-2--|--2--2--2-2-2-0--0-0-0--0-0--| X2
--0--0--0-0-0--0-0-0-0--0-0--|--3--3--3-3-3-0--0-0-0--0-0--|
--0--0--0-0-0--0-0-0-0--0-0--|-----------------------------|
R2D2
-------------------------------|-------------------------------|
-------------------------------|-------------------------------|
-------------------------------|-------------------------------|
--2--2--2-2-2S--6-6-6-4--4-4-4-|--2--2--2-2-2S--6-6-6-4--4-4-4-|
--2--2--2-2-2S--6-6-6-4--4-4-4-|--2--2--2-2-2S--6-6-6-4--4-4-4-|
--0--0--0-0-0S--4-4-4-2--2-2-2-|--0--0--0-0-0S--4-4-4-2--2-2-2-|

-----------------------------|-----------------------------|
-----------------------------|-----------------------------|
--6--6--6-6-6--6-6-6-6--6-6--|-----------------------------|
--6--6--6-6-6--6-6-6-6--6-6--|--2--2--2-2-2-4--4-4-4--4-4--| X2
--4--4--4-4-4--4-4-4-4--4-4--|--2--2--2-2-2-4--4-4-4--4-4--|
-----------------------------|--0--0--0-0-0-2--2-2-2--2-2--|
INTRO DE NUEVO (IGUAL
LA PARTE DONDE DICE REALMENTE NO ESTOY.....
PEPE

--0--0---0-0-2--2-2-3--3-3-3-|--0--0---0-0-2--2-2-3--3-3-3-|
--0--0---0-0-3--3-3-3--3-3-3-|--0--0---0-0-3--3-3-3--3-3-3-|
--0--0---0-0-2--2-2-5--5-5-5-|--0--0---0-0-2--2-2-5--5-5-5-|
--2--2---2-2-0--0-0-5--5-5-5-|--2--2---2-2-0--0-0-5--5-5-5-|
--2--2---2-2-0--0-0-3--3-3-3-|--2--2---2-2-0--0-0-3--3-3-3-|
--0--0---0-0-----------------|--0--0---0-0-----------------|


--2--2---2-2-3--3-3-3--3-3-3-|--0--0---0-0-2--2-2--2-2-2-0-|
--3--3---3-3-3--3-3-x--x-x-x-|--1--1---1-1-3--3-3--3-3-3-0-|
--2--2---2-2-5--5-5-5--5-5-5-|--0--0---0-0-2--2-2--2-2-2-0-|
--0--0---0-0-5--5-5-5--5-5-5-|--2--2---2-2-0--0-0--0-0-0-2-|
--0--0---0-0-3--3-3-2--2-2-2-|--3--3---3-3-0--0-0--0-0-0-2-|
-----------------------------|---------------------------0-|

--0------0-0-2--2-2-3--3-3-|--0------0-0-2--2-2-3--3-3-|
--0------0-0-3--3-3-3--3-3-|--0------0-0-3--3-3-3--3-3-|
--0------0-0-2--2-2-5--5-5-|--0------0-0-2--2-2-5--5-5-|
--2------2-2-0--0-0-5--5-5-|--2------2-2-0--0-0-5--5-5-|
--2------2-2-0--0-0-3--3-3-|--2------2-2-0--0-0-3--3-3-|
--0------0-0---------------|--0------0-0---------------|

--2------2-2-3--3-3-3--3-3-|--0------0-0-2----2----|
--3------3-3-3--3-3-x--x-x-|--1------1-1-3----3----|
--2------2-2-5--5-5-5--5-5-|--0------0-0-2----2----|
--0------0-0-5--5-5-5--5-5-|--2------2-2-0----0----|
--0------0-0-3--3-3-2--2-2-|--3------3-3-0----0----|
---------------------------|-----------------------|

AQUI ES LA PARTE DONDE PEPE DICE: ENTRE TU Y YO......


 S S S S S S S S S S S S S S S S    S S S S S S S S S S S S S S S S
---3--3--3--3--2--2--2--2--|--2--2--2--2--0--0--0--0-------------------|
----3--3--3--3--3--3--3--3-|---3--3--3--3--1--1--1--1-|ESTO X 2--------|
----------------------------------|------------------------------------|
----------------------------------|------------------------------------|
----------------------------------|------------------------------------|
----------------------------------|------------------------------------|
Y LUEGO LO TOCA ASI
--3-3-3-3-3-3-3-3-2-2-2-2-2-2-2-2-|--2-2-2-2-2-2-2-2-0-0-0-0-0-0-0-0-|
--3-3-3-3-3-3-3-3-3-3-3-3-3-3-3-3-|--3-3-3-3-3-3-3-3-1-1-1-1-1-1-1-1-|
----------------------------------|----------------------------------|X2
----------------------------------|----------------------------------|
----------------------------------|----------------------------------|
----------------------------------|----------------------------------|
EN TODAS ESA PARTE R2D2 TOCA ESTO

---------7-------7g9--7-----|---------7--------7g9--7----|
-------7---------7----7-----|---------7----------7--7----|
--8s-9----------------------|--8s-9----------------------|
----------------------------|----------------------------|
----------------------------|----------------------------|
----------------------------|----------------------------|


--11------11b--11----------|--11------11b--11----------|---------------------|
---------------------12----|---------------------------|---------------------|
---------------------------|---------------------11----|--L~------------9----|
---------------------------|---------------------------|---------------------|
---------------------------|---------------------------|---------------------|
---------------------------|---------------------------|---------------------|


-------------------------|-------------------------|
-------------------------|-------------------------|
--8------9s--11----L~----|-------------------------|
-------------------------|--9---------9------9s-11-|
-------------------------|---------9---------------|
-------------------------|-------------------------|

---------------------------------|
---------------------------------|
---------------------------------|
--9--L~----11--11s-13--~---------|
---------------------------------|
---------------------------------|

----------------------------------------------------|
--12-------12-------14----12-------12-------14------|
-----11-11----11-11----11----11-11----11-11---11----|
----------------------------------------------------|
----------------------------------------------------|
----------------------------------------------------|

--11-------11-------------------------------------|
--------------------14----12-------12-------11----|
-----11-11----11-11----11----11-11----11-11----11-|
--------------------------------------------------|
--------------------------------------------------|
--------------------------------------------------|

--------------------------------------------------|
--12-------12-------14----12-------12-------14----|
-----11-11----11-11----11----11-11----11-11----11-|
--------------------------------------------------|
--------------------------------------------------|
--------------------------------------------------|

--11-------11-------12----14-------14-------14\--|
-------------------------------------------------|
-----11-11----11-11----11----11-11----11-11------|
-------------------------------------------------|
-------------------------------------------------|
-------------------------------------------------|
LUEGO VA EL CORO PEPE TOCA LO MISMO
R2D2 TOCA EN INTRO UNA VEZ PERO LA SIG CON UNA VARIACIÓN ASI:


|--------------------------------|
|--------------------------------|
|--4--4--4-4-4s-8-8~--8-6--6-6-4-|
|--------------------------------|
|--------------------------------|
|--------------------------------|

--------------------------------------|--------------------------------------|
--------------------------------------|-------------12-----------12----------|
--4--4--4-4-4s-8-8b--8----------------|------11-----------11-----------11----|
-----------------------11~--11-11-11S-|--14-----14----14----14----14---------|
--------------------------------------|--------------------------------------|
--------------------------------------|--------------------------------------|


-----------------------12---11---------|
---------12----14--14-----------12-----|
---------------------------------------|
--13s-14----14-------------------------|
---------------------------------------|
---------------------------------------|
VA LA PARTE DONDE DICE:NO NO TE RINDAS JAMAS....
PEPE AHI TOCA EL CORO X2 Y ACABA EN G
R2D2 TOCA ESTO EN TODA ESA PARTE

-------------------------------------------|
--12--12--12-12-12-16-16~--16-14--14-14-12-|
-------------------------------------------|
-------------------------------------------|
-------------------------------------------|
-------------------------------------------|

-------------------------------------------|
--12--12--12-12-12-16-16b--16-14~--14-14~--|
-------------------------------------------|
-------------------------------------------|
-------------------------------------------|
-------------------------------------------|

----------14----------14-----16-----|
--12--12------12--12------12-----12-|
------------------------------------|
------------------------------------|
------------------------------------|
------------------------------------|

--14--14--14s-12-11--------------------------|
--------------------14~---14~--14s-12-12s-11-|
---------------------------------------------|
---------------------------------------------|
---------------------------------------------|
---------------------------------------------|

----------------------------------------|
--12--12--12----12----14---14s--16-16S--|
-------------11----11-------------------|
----------------------------------------|
----------------------------------------|
----------------------------------------|

-----------------------------------------|-----------------------------------|
--12--12--12----12----14---14s-16-16-16--|--16b--16-14~--14-14s-12-12~-------|
-------------11----11--------------------|-----------------------------------|
-----------------------------------------|-----------------------------------|
-----------------------------------------|-----------------------------------|
-----------------------------------------|-----------------------------------|

---------------------------------------------|--7----------------|
--16b--16-14~--14-14-12-12~--11-12~--11-12S--|--7----------------|
---------------------------------------------|-------------------|
---------------------------------------------|-------------------|
---------------------------------------------|-------------------|
---------------------------------------------|-------------------|
PUES AHI ESTA DUDAS,COMENTARIOS Y/O MENTADAS DE MADRE AL CORREO: panda_vetealaverga@hotmail.com
Добавлено: 22.11.2013
Другие материалы по этой песне:
  • Аккорды и текст

Страница создана 11.11.2013
http://primanota.ru/panda/adheridos-separados-chords.htm
Привет, Гость.
Предлагаем пройти революционный курс по гитаре.
Подарок от PrimaNota.Ru, забирай!