PrimaNota.ru - самый крупный в мире бесплатный архив песенных текстов, аккордов, табулатур и нот


Panda Su - Moviegoer - таба, видео

Регистрация Запомнить меня
Войти через:  Facebook Google Twitter Vk Yandex Mail.ru

Panda Su - Moviegoer - таба, видео

Печатать
Просмотров: 115
-------------------------------------------------------------------------------
                             MOVIEGOER - Panda Su
-------------------------------------------------------------------------------

Tabbed by: BrobeCagre
E-mail: bambrown@comcast.net

Finally decided to put up this tab. I figured it out way
back when I posted "Pot, Kettle, Black" but I knew it'd
be time-consuming. Or I'm lazy. Regardless, here it is:

Tuning: Standard

Intro:
Play twice
e|-------------------------------------------------------------------|
B|-------------------------------------------------------------------|
G|-------------------------------------------------------------------|
D|----3---3---3---3---3---3---3---3---0---0---0---0---2---2---2---2--|
A|--3---3---3---3---3---3---3---3---3---3---3---3---3---3---3---3----|
E|-------------------------------------------------------------------|

Verse:
Play once
e|-------------------------------------------------------------------|
B|-------------------------------------------------------------------|
G|--------------------------------------------------------0----------|
D|----3---3---3---3---3---3---3---3---0---0---0---0---2-------2---2--|
A|--3---3---3---3---3---3---3---3---3---3---3---3---3---3---3---3----|
E|-------------------------------------------------------------------|

Play three times
e|-------------------------------------------------------------------|
B|-------------------------------------------------------------------|
G|-------------------------------------------------------------------|
D|----3---3---3---3---3---3---3---3---0---0---0---0---2---2---2---2--|
A|--3---3---3---3---3---3---3---3---3---3---3---3---3---3---3---3----|
E|-------------------------------------------------------------------|


Chorus:
Play twice
e|--------------------------------------------------------------------|
B|---------------------------------------------1---------------1------|
G|------0-----0---------0-----0----------2-------2-------2-------2----|
D|----0-----0---0-----0-----0---0------2-----2-----2---2-----2-----2--|
A|----------------2---------------2--0-----0---------0-----0----------|
E|--3-----3---------3-----3-------------------------------------------|

e|--------------------------------------------------------------------|
B|--------------------------------------------------------------------|
G|------2-----2---------2-----2----------0-----0---------0-----0------|
D|----3-----3---3-----3-----3---3------2-----2---2-----2-----2---2----|
A|----------------3---------------3--3-----3-------3-3-----3-------3--|
E|--1-----1---------1-----1-------------------------------------------|

Verse:
Play four times
e|-------------------------------------------------------------------|
B|-------------------------------------------------------------------|
G|-------------------------------------------------------------------|
D|----3---3---3---3---3---3---3---3---0---0---0---0---2---2---2---2--|
A|--3---3---3---3---3---3---3---3---3---3---3---3---3---3---3---3----|
E|-------------------------------------------------------------------|

Break:
Play once
e|--------------------|
B|--------------------|
G|--------------------|
D|--0----2----3-------|
A|-----------------3--|
E|--------------------|

Verse:
Play twice
e|-------------------------------------------------------------------|
B|-------------------------------------------------------------------|
G|-------------------------------------------------------------------|
D|----3---3---3---3---3---3---3---3---0---0---0---0---2---2---2---2--|
A|--3---3---3---3---3---3---3---3---3---3---3---3---3---3---3---3----|
E|-------------------------------------------------------------------|


Chorus:
Play once
e|--------------------------------------------------------------------|
B|--------------------------------------------------------------------|
G|------0-----0---------0-----0----------2-----2---------2-----2------|
D|----0-----0---0-----0-----0---0------2-----2---2-----2-----2---2----|
A|----------------2---------------2--0-----0-------0-0----0--------0--|
E|--3-----3---------3-----3-------------------------------------------|

e|--------------------------------------------------------------------|
B|--------------------------------------------------------------------|
G|------2-----2---------2-----2----------0-----0---------0-----0------|
D|----3-----3---3-----3-----3---3------2-----2---2-----2-----2---2----|
A|----------------3---------------3--3-----3-------3-3-----3-------3--|
E|--1-----1---------1-----1-------------------------------------------|

e|--------------------------------------------------------------------|
B|---------------------------------------1-----1---------1-----1------|
G|------0-----0---------0-----0------------------2---------------2----|
D|----0-----0---0-----0-----0---0------2-----2-----2---2-----2-----2--|
A|----------------2---------------2--0-----0---------0-----0----------|
E|--3-----3---------3-----3-------------------------------------------|

e|--------------------------------------------------------------------|
B|--------------------------------------------------------------------|
G|------2-----2---------2-----2----------0-----0---------0-----0------|
D|----3-----3---3-----3-----3---3------2-----2---2-----2-----2---2----|
A|----------------3---------------3--3-----3-------3-3-----3-------3--|
E|--1-----1---------1-----1-------------------------------------------|

Outro:
Play five times
e|-------------------------------------------------------------------|
B|-------------------------------------------------------------------|
G|-------------------------------------------------------------------|
D|----------------------------------2-2-2-2-2-2-2-2-2-2-2-2-2-2-2-2--|
A|--2-2-2-2-2-2-2-2-2-2-2-2-2-2-2-2-0-0-0-0-0-0-0-0-0-0-0-0-0-0-0-0--|
E|--3-3-3-3-3-3-3-3-3-3-3-3-3-3-3-3----------------------------------|

e|-------------------------------------------------------------------|
B|-------------------------------------------------------------------|
G|-------------------------------------------------------------------|
D|--3-3-3-3-3-3-3-3-3-3-3-3-3-3-3-3-2-2-2-2-2-2-2-2-2-2-2-2-2-2-2-2--|
A|--3-3-3-3-3-3-3-3-3-3-3-3-3-3-3-3-3-3-3-3-3-3-3-3-3-3-3-3-3-3-3-3--|
E|-------------------------------------------------------------------|


And that's all there is to it. Very simple guitar part, but
played clean and beautiful.
I tried to make it as clear as possible and include the 
slight changes for each section.

As usual, questions, comments, concerns, email me.

************************************
Добавлено: 24.07.2015
Другие материалы по этой песне:
  • Аккорды и текст

Страница создана 24.07.2015
http://primanota.ru/panda-su/moviegoer-chords.htm
Привет, Гость.
Предлагаем пройти революционный курс по гитаре.
Подарок от PrimaNota.Ru, забирай!