PrimaNota.ru - самый крупный в мире бесплатный архив песенных текстов, аккордов, табулатур и нот


Panda Bear - Take pills - аккорды и текст, таба, видео

Регистрация Запомнить меня
Войти через:  Facebook Google Twitter Vk Yandex Mail.ru

Panda Bear - Take pills - аккорды и текст, таба, видео

Печатать
Просмотров: 134
Уроки эстрадного вокала в Санкт-Петербурге
Take pills
Panda Bear





Take Pills





A6

2
2
2
2
0
0

The whole song is pretty much just one chord.
For the intro, strum something vaguely based
around this pattern:

       A6                     A6
e------------2-----2----------------2-----2-----
B---------------2----------------------2--------
G------2--------------2-------2--------------2--
D------0----------------------0-----------------
A-0--0-0-----------------0--0-0-----------------
E-0--0-------------------0--0-------------------




A6     A6          A6             A6
surely there is no substitute for company
A6       A6          A6
my mom's ripping off her hands
             A6
one flake at a time
A6               A6
all her children left the house
 A6               A6
and left her all alone
A6       A6                             A6
but just like she'd tell me, things get better
              A6
just wait and you'll see
              A6
just wait and you'll see
              A6
just wait and you'll see
              A6
just wait and you'll see...



(then somehow transition into something like this
in A major for the 2nd part of the song:


   A           A           A
e--------------------------------------
B----2-2----2----2-2----2----2-2----2--
G----2-2----2----2-2----2----2-2----2--
D----2-2----2----2-2----2----2-2----2--
A--0-----------0-----------0-----------
E--------0-----------0-----------0-----



A
take one day at a time
everything else you can leave behind
only one thing at a time
anything more really hurts your mind

said i don't want for us to
take pills anymore
its not that bad
said i don't want for us to
take pills anymore
its not that bad
said i don't want for us to
take pills take pills take pills
'cause we're stronger and
we don't need 'em
stronger and we dont need 'em



x3 or 4





Добавлено: 24.09.2013
Вам также может быть интересно:
Другие материалы по этой песне:
  • Аккорды и текст

Страница создана 24.09.2013
http://primanota.ru/panda-bear/take-pills-chords.htm
Привет, Гость.
Предлагаем пройти революционный курс по гитаре.
Подарок от PrimaNota.Ru, забирай!