PrimaNota.ru - самый крупный в мире бесплатный архив песенных текстов, аккордов, табулатур и нот


Panama - Always - аккорды и текст, видео

Регистрация Запомнить меня
Войти через:  Facebook Google Twitter Vk Yandex Mail.ru

Panama - Always - аккорды и текст, видео

Печатать
Просмотров: 135
Always
Panama
I tried to get the timing of the chords with the lyrics but it's not perfect, after a few tries you'll nail
it.

Edit: As cookieomoregie pointed out in the comments it's easily transposable a fret down and add a capo.

Chords:

Bbm   Fm          Ab  Eb  Db

|6|   |1|    |7|  |4| |6| |4|
|6|   |1|    |8|  |4| |8| |6|
|6|   |1|&/or|9|  |4| |8| |6|
|8|   |3|    |9|  |6| |8| |6|
|8|   |3|    |7|  |6| |6| |4|
|6|   |1|    |7|  |4| |x| |x|


VERSE
     Bbm Fm Ab
     Always 
     Bbm  Fm     Eb
     I remember you
     Bbm Fm Ab
     Slow   down 
     Eb       Ab     Db
     So I can follow you

     Bbm Fm Ab
     Bbm Fm Eb
     Bbm Fm Ab
     Eb  Ab Db

            Bbm Fm Ab
     And    you
                     Bbm    Fm       Eb
     Such a fearless soul
     Bbm     Fm     Ab
     Disarmed me by truth
                  Eb       Ab     Db
     And broke my mold

CHORUS
     Db Ab Fm
     Always 
     Db         Ab Eb
     I remember you
     Db       Ab Fm
     Slow down 
           Db            Ab   Eb
     and try to tell the truth

VERSE
        Bbm Fm Ab
     And  I    know 
   Bbm          Fm             Eb
     I'm just a coward when it comes to love  
     Bbm      Fm Ab       
     Disarmed by words
             Eb        Ab      Db
     Like an old white stain
        Bbm    Fm Ab
     Goodbye         My deeper child
     Bbm Fm Eb

             Bbm       Fm          Ab
     Time to        take down your barricades
     Eb         Ab             Db
     And follow your own heart now

CHORUS
     Db Ab Fm
     Always 
     Db         Ab   Eb
     I remember you
     Db   Ab   Fm
     Slow down 
         Db              Ab    Eb
     and try to tell the truth
     Db    Ab Fm
     Always
     Db              Ab   Eb
     I can recall you
             Db       Ab   Fm
     Can you slow down
        Db           Ab    Eb
     So I can follow you?

PIANO FILL

     |--------------------|--------------------|
     |---6--4-------------|------1-------------|
     |---------5--3--1----|-1h3----------------|
     |-6------------------|--------1--3--------| 
     |--------------------|--------------------|
     |--------------------|--------------------|

     |--------------------|--------------------|
     |---6--4-------------|------1-------------|
     |---------5--3--1----|-1h3-----3-1--------|
     |-6------------------|-------------3------| 
     |--------------------|--------------------|
     |--------------------|--------------------|

OUTRO 
   Db          Ab    Fm       Db             Ab       Eb
     Deep down you said I'm a coward when it comes to love
   Db         Ab    Fm    Db          Ab    Eb
     Deep down your words changed my mold
   Db         Ab   Fm         Db             Ab       Eb
     Deep down you said I'm a coward when it comes to love
   Db            Ab     Fm     Db          Ab   Eb
     Deep down your barricades changed my mold

OUTRO/PIANO FILL x2

     |-------------------|-------------------|
     |---6--4------------|-----1-------------|
     |--------5--3--1----|-1h3---------------|
     |-6-----------------|-------1---3-------| 
     |-------------------|-------------------|
     |-------------------|-------------------|

     |-------------------|-------------------|
     |---6--4------------|-----1-------------|
     |--------5--3--1----|-1h3----3-1--------|
     |-6-----------------|-------------3-----| 
     |-------------------|-------------------|
     |-------------------|-------------------|
Добавлено: 17.05.2016
Другие материалы по этой песне:
  • Аккорды и текст

Страница создана 17.05.2016
http://primanota.ru/panama/always-chords.htm
Привет, Гость.
Предлагаем пройти революционный курс по гитаре.
Подарок от PrimaNota.Ru, забирай!