PrimaNota.ru - самый крупный в мире бесплатный архив песенных текстов, аккордов, табулатур и нот


Pambo - Tras Nubes - аккорды и текст, таба, видео

Регистрация Запомнить меня
Войти через:  Facebook Google Twitter Vk Yandex Mail.ru

Pambo - Tras Nubes - аккорды и текст, таба, видео

Печатать
Просмотров: 115
Tras Nubes
Pambo
Intro

A--------3-------------3------------2------3-2--------|
D------------3--------------3----------------------3--|
G---------------------------------0-------0-----------|
B----2-------------3----------------------------------|
E-----------------------------------------------------|

A--------3-------------3------------2------3-2--------|
D------------3--------------3----------------------3--|
G---------------------------------0-------0-----------|
B----2-------------3----------------------------------|
E-----------------------------------------------------|
 Hay en ti amor un cielo
A--------3-------------3------------2------3-2--------|
D------------3--------------3----------------------3--|
G---------------------------------0-------0-----------|
B----2-------------3----------------------------------|
E-----------------------------------------------------|
 que no encuentro
A--------3-------------3------------2------3-2--------|
D------------3--------------3----------------------3--|
G---------------------------------0-------0-----------|
B----2-------------3----------------------------------|
E-----------------------------------------------------|
 Y esque está tan dentro que
A--------3-------------3------------2------3-2--------|
D------------3--------------3----------------------3--|
G---------------------------------0-------0-----------|
B----2-------------3----------------------------------|
E-----------------------------------------------------|

Sólo veo el reflejo

G Cadd9 D
hay en ti amor
un millon de estrellas
pero estan tras nubes
y es que evitas verlas

CORO
G Am C
y si dejas que diga
que tanto te quiero
en vez de buscarme pero tras pero
y es que tu me extrañas
entonces escucha
no hay na mas que amor aqui


A------------------------------------------------------------|
D-----3/5---5-3------8-7--5--7--5--3--7--5-------------------|
G------------------------------------------------------------|
B------------------------------------------------------------|
E------------------------------------------------------------|

A------------------------------------------------------------|
D--3--3/5---5-3------8-7--5--7--5--3--7--5-------------------|
G------------------------------------------------------------|
B------------------------------------------------------------|
E------------------------------------------------------------|


G Cadd9 D
cada que imagino
pienso en mil momentos
en que estas conmigo pero
se que miento

CORO
G Am C
y si me dejas que diga
que tanto te quiero
en vez de buscarme pero tras pero
si es que tu me extrañas
entonces escucha
no hay na mas que amor aqui

F G F G F G
Bb A D
parabarapapapapau
parabarapau
parabarapapapapau
pabarabarapapapau

CORO
G Am C
y si me dejas que diga
que tanto te quiero
en vez de buscarme pero tras pero
si es que tu me extrañas
entonces escucha
no hay na mas que amor aqui

G D G
no hay na mas que amor
Добавлено: 09.03.2012
Другие материалы по этой песне:
  • Аккорды и текст

Страница создана 09.03.2012
http://primanota.ru/pambo/tras-nubes-chords.htm
Привет, Гость.
Предлагаем пройти революционный курс по гитаре.
Подарок от PrimaNota.Ru, забирай!