PrimaNota.ru - самый крупный в мире бесплатный архив песенных текстов, аккордов, табулатур и нот


Palma Violets - Last Of The Summer Wine - таба, видео

Регистрация Запомнить меня
Войти через:  Facebook Google Twitter Vk Yandex Mail.ru

Palma Violets - Last Of The Summer Wine - таба, видео

Печатать
Просмотров: 159
Palma violets B-side
Last of the summer wine

Lyrics probably arn't all correct but guitars are.

--------------------[------------------------3---------------|Times 3
--------------------[------------------------5---5-----------|
--------------------[------------------------5---5-----------|
--------------------[------------------------5---------------|
--33-333-5-3-----33-[-3333-33-333-5-3-----33-3---------------|
-------------3-5----[-----------------3-5--------------------|

--------------------------------------------------------------|Times 4
--------------------------------------------------------------|
--777s77s5s5s777s99s7-----------------------------------------|
--000-00-0-0-000-00-0-----------------------------------------|
--------------------------------------------------------------|
--------------------------------------------------------------|

Chords thoughout

--3-33----------[-3-333-3-33----------]------------------------|
--4-44-3333-111-[-4-444-4-44-3333-111-]-Times-3----------------|
--5-55-4444-222-[-5-555-5-55-4444-222-]------------------------|
--5-55-5555-333-[-5-555-5-55-5555-333-]------------------------|
--3-33-5555-333-[-3-333-3-33-5555-333-]------------------------|
-------3333-111-[------------3333-111-]------------------------|

love isn't easy
well thats just the way it goes
im loving the highroad
and i ride along again

i was searching for something
something i love
well we're searching going right over we go
im going again

over and over and over again
under and under and under again
over and over and over agin
im going again


Solo
(it could be a solo i suppose)

-555-5-3-3-------5555-3-3-----555-5-3----------------------------|
--------5-5-3----------5-5-3---------5-3-----55-5-5-6-5-3--------|
-------------5-2------------5-----------5-2---------------5------|
-----------------------------------------------------------------|
-----------------------------------------------------------------|
-----------------------------------------------------------------|

over and over again
over and over again
over and over again
lord im going im going again

End of chords

all my days
fade all the way
fade all my days
fade all the way


where going up
where growing up
Добавлено: 15.07.2013
Другие материалы по этой песне:
  • Аккорды и текст

Страница создана 15.07.2013
http://primanota.ru/palma-violets/last-of-the-summer-wine-chords.htm
Привет, Гость.
Предлагаем пройти революционный курс по гитаре.
Подарок от PrimaNota.Ru, забирай!