PrimaNota.ru - самый крупный в мире бесплатный архив песенных текстов, аккордов, табулатур и нот


Palma Violets - Chicken Dippers - таба, видео

Регистрация Запомнить меня
Войти через:  Facebook Google Twitter Vk Yandex Mail.ru

Palma Violets - Chicken Dippers - таба, видео

Печатать
Просмотров: 120
Song:Chicken Dippers
Album:180(2013)
Guitarist:Sam Fryer


Keyboard and Drum intro

-------------------|Times 2
-------------------|
-------------------|
-------------------|
---7--7-9-7-9-2-5--|
-------------------|

Em            D
Take me down,Take me go
Em            D
And im gone, away again
Em            D
Your hair your hair is on fire
Em            D
Your hair is on fire
        G                             D
And you make me feel like im the only one
Woo!

----------------10b-------------------------------------------|
-12b-12b-12b-12b----12b-10b-----------------------------------|
---------------------------9b-11b-11b-11b-11b-11b-11b-9b------|
--------------------------------------------------------------|
--------------------------------------------------------------|
--------------------------------------------------------------|
        G                             D
And you make me feel like im the only one

-------------------|Times 2
-------------------|
-------------------|
-------------------|
---7--7-9-7-9-2-5--|
-------------------|
Em                    D
Im running Im running around
Em                    D
Im running Im running around
Em                    D
Your hair your hair is on fire
Em                    D
your hair is a stone red gage

        G                             D
And you make me feel like im the only one
Woo!

----------------10b-------------------------------------------|
-12b-12b-12b-12b----12b-10b-----------------------------------|
---------------------------9b-11b-11b-11b-11b-11b-11b-9b------|
--------------------------------------------------------------|
--------------------------------------------------------------|
--------------------------------------------------------------|
        G                             D
And you make me feel like im the only one
Woo!

----------------10b-------------------------------------------|
-12b-12b-12b-12b----12b-10b-----------------------------------|
---------------------------9b-11b-11b-11b-11b-11b-11b-9b------|
--------------------------------------------------------------|
--------------------------------------------------------------|
--------------------------------------------------------------|

        G                             D
And you make me feel like im the only one im the only one

--------------------|
--------------------|
--------------------|
-----2-4-2----------|
-2-5-------5-2------|
--------------------|
        G                             D               (Em)
And you make me feel like im the only one im the only
Добавлено: 03.11.2013
Другие материалы по этой песне:
  • Аккорды и текст

Страница создана 18.08.2013
http://primanota.ru/palma-violets/chicken-dippers-chords.htm
Привет, Гость.
Предлагаем пройти революционный курс по гитаре.
Подарок от PrimaNota.Ru, забирай!