PrimaNota.ru - самый крупный в мире бесплатный архив песенных текстов, аккордов, табулатур и нот


Palma Violets - 180 (album) - таба, видео

Регистрация Запомнить меня
Войти через:  Facebook Google Twitter Vk Yandex Mail.ru

Palma Violets - 180 (album) - таба, видео

Печатать
Просмотров: 120

-------------------------------------------------------------------------------
                             Best Of Friends - Palma Violets
-------------------------------------------------------------------------------

Tuning: Drop Gb?


(Emphasis These Notes in the Chord) Times 7
e|--3----------------------------3-3----------------------|
B|--5--------5---------5-----2-2-0-0----------------------|
G|--5--5----------5----------2-2-0-0----------------------|
D|--5-----5----------5-----5-2-2-0-0----------------------|
A|--3----------3---------3---0-0-2-2----------------------|
E|-------------------------------3-3----------------------|


Times 1
e|---------3-3--3------------------------------------------|
B|----2-2--0-0--5------------------------------------------|
G|----2-2--0-0--5------------------------------------------|
D|----2-2--0-0--5------------------------------------------|
A|----0-0--2-2--3------------------------------------------|
E|---------3-3---------------------------------------------|

Times 2
e|---------3333-3------------------------------------------|
B|---------0000-5------------------------------------------|
G|---------0000-5------------------------------------------|
D|---------0000-5------------------------------------------|
A|---------2222-3------------------------------------------|
E|---------3333--------------------------------------------|

Times 2
e|---------3-3--3------------------------------------------|
B|----2-2--0-0--5------------------------------------------|
G|----2-2--0-0--5------------------------------------------|
D|----2-2--0-0--5------------------------------------------|
A|----0-0--2-2--3------------------------------------------|
E|---------3-3---------------------------------------------|

Times 1
e|---------1010101010-3------------------------------------|
B|---------1212121212-5------------------------------------|
G|---------1212121212-5------------------------------------|
D|---------1212121212-5------------------------------------|
A|---------1010101010-3------------------------------------|
E|---------------------------------------------------------|


Times 1
e|---------3-3--3------------------------------------------|
B|----2-2--0-0--5------------------------------------------|
G|----2-2--0-0--5------------------------------------------|
D|----2-2--0-0--5------------------------------------------|
A|----0-0--2-2--3------------------------------------------|
E|---------3-3---------------------------------------------|


Times 1
e|---------3-3---------------------------------------------|
B|----2-2--0-0---------------------------------------------|
G|----2-2--0-0---------------------------------------------|
D|----2-2--0-0---------------------------------------------|
A|----0-0--2-2---------------------------------------------|
E|---------3-3---------------------------------------------|

------------------------------------------------------------


Chorus Times 4

e|--1111111111111111----------33333333---------------------|
B|--1111111111111111-11111111-00000000---------------------|
G|--2222222222222222-00000000-00000000---------------------|
D|--3333333333333333-22222222-00000000---------------------|
A|-------------------33333333-22222222---------------------|
E|----------------------------33333333---------------------|


Fill (Wrekless Eric style)
e|-3-3----------3-3----------------------------------------|
B|-5-5----------5-5----------------------------------------|
G|-5-5----------5-5----------------------------------------|
D|-5-5-0-2-3-2--5-5-3-2-0-2--------------------------------|
A|-3-3----------3-3----------------------------------------|
E|---------------------------------------------------------|

------------------------------------------------------------

Times 5
e|---------3-3--3------------------------------------------|
B|----2-2--0-0--5------------------------------------------|
G|----2-2--0-0--5------------------------------------------|
D|----2-2--0-0--5------------------------------------------|
A|----0-0--2-2--3------------------------------------------|
E|---------3-3---------------------------------------------|

Times 1
e|---------1010101010-3------------------------------------|
B|---------1212121212-5------------------------------------|
G|---------1212121212-5------------------------------------|
D|---------1212121212-5------------------------------------|
A|---------1010101010-3------------------------------------|
E|---------------------------------------------------------|


Times 3
e|---------3-3--3------------------------------------------|
B|----2-2--0-0--5------------------------------------------|
G|----2-2--0-0--5------------------------------------------|
D|----2-2--0-0--5------------------------------------------|
A|----0-0--2-2--3------------------------------------------|
E|---------3-3---------------------------------------------|


Times 1
e|---------3-3---------------------------------------------|
B|----2-2--0-0---------------------------------------------|
G|----2-2--0-0---------------------------------------------|
D|----2-2--0-0---------------------------------------------|
A|----0-0--2-2---------------------------------------------|
E|---------3-3---------------------------------------------|

------------------------------------------------------------

Chorus Times 4

e|--1111111111111111----------33333333---------------------|
B|--1111111111111111-11111111-00000000---------------------|
G|--2222222222222222-00000000-00000000---------------------|
D|--3333333333333333-22222222-00000000---------------------|
A|-------------------33333333-22222222---------------------|
E|----------------------------33333333---------------------|



e|--5-5-5-5-3-----5-5-3------------------------------------|
B|------------5-3--------5-3-5-5-5-5-5-5-5-6-5-1-----------|
G|---------------------------------------------------------|
D|---------------------------------------------------------|
A|---------------------------------------------------------|
E|---------------------------------------------------------|

e|---------2-2-2-2-2-2-2-2-3-3-3-3-5-5-5-7-7-7-8----------|
B|-3-3-3-3-2-2-2-2-4-4-4-4-5-5-5-5-7-7-7-9-9-9-10---------|
G|-4-4-4-4-2-2-2-2-4-4-4-4-5-5-5-5-7-7-7-9-9-9-10---------|
D|-5-5-5-5-2-2-2-2-4-4-4-4-5-5-5-5-7-7-7-9-9-9-10---------|
A|-5-5-5-5-0-0-0 0-2-2-2-2-3-3-3-3-5-5-5-7-7-7-8----------|
E|-3-3-3-3------------------------------------------------|

Chorus Times 4

e|--1111111111111111----------33333333---------------------|
B|--1111111111111111-11111111-00000000---------------------|
G|--2222222222222222-00000000-00000000---------------------|
D|--3333333333333333-22222222-00000000---------------------|
A|-------------------33333333-22222222---------------------|
E|----------------------------33333333---------------------|

------------------------------------------------------------



e|-3-3-5-5-7-7-8-8-10-10-12-12-1313-13-12-10---------------|


                                               Rit.
e|---------2-2-2-2-2-2-2-2-3-3-3-3-5-5-5-7-7-7-8-8-8-8--10-10-10-10|
B|-3-3-3-3-2-2-2-2-4-4-4-4-5-5-5-5-7-7-7-9-9-9-10101010-12-12-12-12|
G|-4-4-4-4-2-2-2-2-4-4-4-4-5-5-5-5-7-7-7-9-9-9-10101010-12-12-12-12|
D|-5-5-5-5-2-2-2-2-4-4-4-4-5-5-5-5-7-7-7-9-9-9-10101010-12-12-12-12|
A|-5-5-5-5-0-0-0 0-2-2-2-2-3-3-3-3-5-5-5-7-7-7-8-8-8-8--10-10-10-10|
E|-3-3-3-3---------------------------------------------------------|


e|--3~---------------------------------------------------|
B|--5~---------------------------------------------------|
G|--5~---------------------------------------------------|
D|--5~---------------------------------------------------|
A|--3~---------------------------------------------------|
E|-------------------------------------------------------|




-------------------------------------------------------------------------------
                        Step up for the cool cats
-------------------------------------------------------------------------------
:

e|-1-1-1-1-1-------1-1-1-1-1--------1-1-1-----1-------1-1-1-----1------------|
B|-----------1-3-1-----------1-3-1--------1-3----1-3--------1-3---1-3--------|
G|---------------------------------------------------------------------------|
D|---------------------------------------------------------------------------|
A|---------------------------------------------------------------------------|
E|---------------------------------------------------------------------------|

e|1-1-1-----1-------1-1-1-1-1-3-3-3-1--------1-------------------------------|
B|------1-3---1-3----------------------1-3-1---------------------------------|
G|---------------------------------------------------------------------------|
D|---------------------------------------------------------------------------|
A|---------------------------------------------------------------------------|
E|---------------------------------------------------------------------------|

You drive my car, around the bend
It never ends, it never ends oh yea yea yea

FFFFFFFFFFF


(alternates between F and Bb) 
Your on the bed but i got it made 
Your on the rug just step it up oh yea yea yea
  
        G                  Bb
All the cool cats said you must lie on

e|-1-1-1-1-1-------1-1-1-1-1--------1-1-1-----1-------1-1-1-----1------------|
B|-----------1-3-1-----------1-3-1--------1-3----1-3--------1-3---1-3--------|
G|---------------------------------------------------------------------------|
D|---------------------------------------------------------------------------|
A|---------------------------------------------------------------------------|
E|---------------------------------------------------------------------------|

e|1-1-1-----1------1-1-1-----1------1-1-1-----1------------------------------|
B|------1-3---1-3--------1-3---1-3--------1-3---1-3--------------------------|
G|---------------------------------------------------------------------------|
D|---------------------------------------------------------------------------|
A|---------------------------------------------------------------------------|
E|---------------------------------------------------------------------------|



(alternates between F and Bb)
Your on the bed but i'm still here
Now your on a roll!
You better run run run run run run run
   
       
           G              C
You had me dancing in the sun


e|--8---8--8----6-6-6-6-6-6-6-6----------------------------------------------|
B|--10--8---8---6-6-6-6-6-6-6-6----------------------------------------------|
G|--10--9----9--7-7-7-7-7-7-7-7----------------------------------------------|
D|--10--10------8-8-8-8-8-8-8-8----------------------------------------------|
A|--8---10------8-8-8-8-8-8-8-8----------------------------------------------|
E|------8-------6-8-8-8-8-8-8-8----------------------------------------------|

           F       C      Bb
You got me dancing in the sun 
You got me dancing in the sun
You got me dancing in the sun
You got me dancing in the sun
  

e|-------1-----1-------1-----1-------1-----1---------------------------------|
B|-1-3-1---1-3---1-3-1---1-3---1-3-1---1-3---1-3-1---------------------------|
G|---------------------------------------------------------------------------|
D|---------------------------------------------------------------------------|
A|---------------------------------------------------------------------------|
E|---------------------------------------------------------------------------|


FFF, BbBbBb, FFF, BbBbBb, FFF, BbBbBb, FFF ,BbBbBb

FFF, BbBbBb, FFF, BbBbBb, FFF, BbBbBb, FFF ,BbBbBb

End on F




-------------------------------------------------------------------------------
                            All The Garden Birds 
-------------------------------------------------------------------------------
this is a guide listen to song for timing.

Tuning:

e|-0-----0-1-3-1-0---------------------------------------------------------|
B|-----------------3-------------------------------------------------------|
G|-------------------------------------------------------------------------|
D|-------------------------------------------------------------------------|
A|-------------------------------------------------------------------------|
E|-------------------------------------------------------------------------|

e|-----------------3--33--3------------------------------------------------|
B|-1--11---1--11---0--00--0------------------------------------------------|
G|-0--00---0--00---0--00--0------------------------------------------------|
D|-2--22---2--22---0--00--0------------------------------------------------|
A|-3--33---3--33---2--22--2------------------------------------------------|
E|-----------------3--33--3------------------------------------------------|


C,G,A Times 4

C     G        A
Don't shoot me down 
Don't shoot me down 
All the garden birds
All you need is love

C,G,A Times 2
wohoo...
wohoo...

C     G        A
Don't shoot me down 
Don't shoot me down 
All the garden birds
All you need is love

C,G,A Times 2
wohoo...
wohoo...
      
      C          G     A
And i dont think i can hack (to get back)
      dont think i can hack (to get back)
      dont think i can hack (to get back)
      dont think i can hack...
 


interlude 
e|-1---------2----1---------3-----------------------------------------------|
B|-1----1----0----1----1----0-----------------------------------------------|
G|-2----0----0----2----0----0-----------------------------------------------|
D|-3----2----0----3----2----0-----------------------------------------------|
A|------3----2---------3----2-----------------------------------------------|
E|-----------3--------------3-----------------------------------------------|

A      G            C         F          E
A      G            C         F          E

A      G            C         F          E
all my friends were there and all of the garden  
(repeat chord pattern until end)



Rattlesnake Highway  

Intro (Palm Mute)
G,F,C
G,F,C

Verse 1

G
Rattlesnake highway I wanna go
G
To the place that im home
G
Strummer on my shoulder oh he knows
G
Knows how it feels to be alone


G,F,C
G,F,C
G,F,C
G,F,C
Verse 2
G           F
Sow the seeds and we can
C                                
watch it grow just like the 
G        F           C
trees we exel in the sun 
         G        F
unlike you i have nothing 
C                          G
going on for me cos i love you
    F            C
sun sun come along RATTLESNAKE 

G,F,C
G,F,C
G,F
G,F
G,F,CCCCCCCCC
     G       F        C
Hold up hold up whats that you say 
   G         F        C
milo why have you run away... 
   G          F                C
i guess you caught the morning news today
     G         F         C
Im a rattlesnake highway man!! 
       G                   CCC G CCC G CCC G CCC G
On the rattle snake highway
     G                     CCC G CCC G CCC G CCC G
On the rattle snake highway 
     G                     CCC G CCC G CCC G CCC G C
On the rattle snake highway Man! 




Song:Chicken Dippers



Keyboard and Drum intro

-------------------Times 2
-------------------
-------------------
-------------------
---7--7-9-7-9-3-5--
-------------------

E            D
Take me down,Take me go
E            D
And im gone, away again
E             D            
Your hair your hair is on fire 
E             D
Your hair is on fire 
        G                             D
And you make me feel like im the only one
Woo!

----------------10b-------------------------------------------
-12b-12b-12b-12b----12b-10b-----------------------------------
---------------------------9b-11b-11b-11b-11b-11b-11b-9b------
--------------------------------------------------------------
--------------------------------------------------------------
--------------------------------------------------------------
        G                             D
And you make me feel like im the only one

-------------------Times 2
-------------------
-------------------
-------------------
---7--7-9-7-9-3-5--
-------------------
E                     D
Im running Im running around
E                     D
Im running Im running around 
E                     D
Your hair your hair is on fire
E                     D 
your hair is a stone red gage

        G                             D
And you make me feel like im the only one
Woo!

----------------10b-------------------------------------------
-12b-12b-12b-12b----12b-10b-----------------------------------
---------------------------9b-11b-11b-11b-11b-11b-11b-9b------
--------------------------------------------------------------
--------------------------------------------------------------
--------------------------------------------------------------
        G                             D
And you make me feel like im the only one
Woo!

----------------10b-------------------------------------------
-12b-12b-12b-12b----12b-10b-----------------------------------
---------------------------9b-11b-11b-11b-11b-11b-11b-9b------
--------------------------------------------------------------
--------------------------------------------------------------
--------------------------------------------------------------

        G                             D
And you make me feel like im the only one im the only one

--------------------
--------------------
--------------------
-----2-4-2----------
-2-5-------5-2------
-------------------- 
        G                             D               (E)   
And you make me feel like im the only one im the only 




 
Last of the summer wine

--------------------[------------------------3---------------]Times 3
--------------------[------------------------4---5-----------]
--------------------[------------------------5---5-----------]
--------------------[------------------------5---------------]
--33-333-5-3-----33-[-3333-33-333-5-3-----33-3---------------]
-------------3-5----[-----------------3-5--------------------]

--------------------------------------------------------------Times 4
--------------------------------------------------------------
--777s77s5s5s777s99s7-----------------------------------------
--000-00-0-0-000-00-0-----------------------------------------
--------------------------------------------------------------
--------------------------------------------------------------

Chords thoughout

--3-33----------[-3-333-3-33----------]------------------------
--4-44-3333-111-[-4-444-4-44-3333-111-]-Times-3----------------
--5-55-4444-222-[-5-555-5-55-4444-222-]------------------------
--5-55-5555-333-[-5-555-5-55-5555-333-]------------------------
--3-33-5555-333-[-3-333-3-33-5555-333-]------------------------
-------3333-111-[------------3333-111-]------------------------

love isn't easy 
well thats just the way it goes
im loving the highroad 
and i ride along again

i was searching for something 
something i love 
well were searching going right over we go
im going again

over and over and over again 
under and under and under again
over and over and over agin
im going again  

-555-5-3-3-------5555-3-3-----555-5-3-3--------------------------
--------5-5-3----------5-5-3---------5-5-3----55-5-5-6-5-3-------
-------------5-2------------5-------------5-2--------------5-----
-----------------------------------------------------------------
-----------------------------------------------------------------
-----------------------------------------------------------------




----------------------------------------------------------------------------
                             Tom the Drum 
----------------------------------------------------------------------------

listen to album for timings!

(For heavier sound use power
chords but this is how it is
played on the album)


Tuning:Standard

e|-----------------------------------------Times-4--------------------------|
B|--------------------------------------------------------------------------|
G|--------------------------------------------------------------------------|
D|--------------------------------------------------------------------------|
A|-7-7-7-7-7-7-7-7--5-5-5-5--4-4-4-4----------------------------------------|
E|-0-0-0-0-0-0-0-0--0-0-0-0--0-0-0-0----------------------------------------|

 Drums come in
e|-----------------------------------------Times-4--------------------------|
B|--------------------------------------------------------------------------|
G|--------------------------------------------------------------------------|
D|--------------------------------------------------------------------------|
A|-7-7-7-7-7-7-7-7--5-5-5-5--4-4-4-4----------------------------------------|
E|-0-0-0-0-0-0-0-0--0-0-0-0--0-0-0-0----------------------------------------|

Guitar stops
  
 Oh you, I want to be alone
 I want to talk to Tom
 He knows more than you do
 And we're bound to get along
 

e|--------------------------------------------------------------------------|
B|--------------------------------------------------------------------------|
G|-9----------------7--------6---------9------------------------------------|
D|-9----------------7--------6---------9------------------------------------|
A|-7----------------5--------4---------7------------------------------------|
E|-0----------------0--------0---------0------------------------------------|

Guitar stops

 Oh you, I don't wanna come and play
 On your rollerblades today
 I'd rather be with Tom
 He always sings along

e|--------------------------------------------------------------------------|
B|--------------------------------------------------------------------------|
G|-9------------------------------------------------------------------------|
D|-9------------------------------------------------------------------------|
A|-7---------------5--------4-----------------------------------------------|
E|-0---------------0--------0-----------------------------------------------|

e|--------------------------------------------------------------------------|
B|--------------------------------------------------------------------------|
G|-9------------------------------------------------------------------------|
D|-9------------------------------------------------------------------------|
A|-7---------------5--------4-----------------------------------------------|
E|-0---------------0--------0-----------------------------------------------|

e|--------------------------------------------------------------------------|
B|--------------------------------------------------------------------------|
G|--------------------------------------------------------------------------|
D|-55555555-55555555-55555555-55555555-5555555-5----------------------------|
A|-55555555-55555555-55555555-55555555-5555555-5----------------------------|
E|-33333333-33333333-33333333-33333333-3333333-3----------------------------|



TOMMMMMMMM THE!
Release the Power Chords!!!!!!


e|-----------------------------------------Times-4--------------------------|
B|--------------------------------------------------------------------------|
G|-9-9-9-9-9-9-9-9--7-7-7-7--6-6-6-6----------------------------------------|
D|-9-9-9-9-9-9-9-9--7-7-7-7--6-6-6-6----------------------------------------|
A|-7-7-7-7-7-7-7-7--5-5-5-5--4-4-4-4----------------------------------------|
E|-0-0-0-0-0-0-0-0--0-0-0-0--0-0-0-0----------------------------------------|


 Oh Tom, this human race
 He always wins the race
 Sent outta space
 Get out of space
 
e|--------------------------------------------------------------------------|
B|--------------------------------------------------------------------------|
G|-9---------------7--------6-----------------------------------------------|
D|-9---------------7--------6-----------------------------------------------|
A|-7---------------5--------4-----------------------------------------------|
E|-0---------------0--------0-----------------------------------------------|

e|--------------------------------------------------------------------------|
B|--------------------------------------------------------------------------|
G|-9------------------------------------------------------------------------|
D|-9------------------------------------------------------------------------|
A|-7---------------5--------4-----------------------------------------------|
E|-0---------------0--------0-----------------------------------------------|


Fucking Brilliant!!!

e|-----------------------------------------Times-3--------------------------|
B|--------------------------------------------------------------------------|
G|-9-9-9-9-9-9-9-9--4-4-4-4--7-7-7-7----------------------------------------|
D|-9-9-9-9-9-9-9-9--4-4-4-4--7-7-7-7----------------------------------------|
A|-7-7-7-7-7-7-7-7--2-2-2-2--5-5-5-5----------------------------------------|
E|-0-0-0-0-0-0-0-0--0-0-0-0--0-0-0-0----------------------------------------|


 Chang chang chang
 I want you to know
 I got you to know
 tom you are the one for me! Get Down!

e|-----------------------------------------Times-7--------------------------|
B|--------------------------------------------------------------------------|
G|-9-9-9-9-9-9-9-9--4-4-4-4--7-7-7-7----------------------------------------|
D|-9-9-9-9-9-9-9-9--4-4-4-4--7-7-7-7----------------------------------------|
A|-7-7-7-7-7-7-7-7--2-2-2-2--5-5-5-5----------------------------------------|
E|-0-0-0-0-0-0-0-0--0-0-0-0--0-0-0-0----------------------------------------|

Slow the last time down!!





---------------------------------------------------------------------------
                         Johnny Bagga' Donuts 
---------------------------------------------------------------------------


Intro

F#,Bb

E
All the Raga you write and the rhythm you breathe in
A,G#,F#,E

E
Im going down to the Scenes 
A,G#,F#,E, A,G#,F#,E

E
You don't know what i'm feeling
A,G#,F#,E,

E
Im banging my head on the ceiling 
A,G#,F#,E, A,G#,F#,E

e|-------7---------7---------7---------7--2222222222---2222222222-------------|
B|-2-2---9---2-2---9---2-2---9---2-2---9--2222222222---4444444444-------------|
G|-2-2---9---2-2---9---2-2---9---2-2---9--3333333333---4444444444-------------|
D|-2-2---9---2-2---9---2-2---9---2-2---9--4444444444---4444444444-------------|
A|-0-0---7---0-0---7---0-0---7---0-0---7--4444444444---2222222222-------------|
E|----------------------------------------2222222222--------------------------|


E
Johnny bag is Sayin'something
A,G#,F#,E 
E
We're all here looking for the real thing
A,G#,F#,E, A,G#,F#,E

e|-------7---------7---------7---------7--2222222222---2222222222-------------|
B|-2-2---9---2-2---9---2-2---9---2-2---9--2222222222---4444444444-------------|
G|-2-2---9---2-2---9---2-2---9---2-2---9--3333333333---4444444444-------------|
D|-2-2---9---2-2---9---2-2---9---2-2---9--4444444444---4444444444-------------|
A|-0-0---7---0-0---7---0-0---7---0-0---7--4444444444---2222222222-------------|
E|----------------------------------------2222222222--------------------------|

E
Oh go home.

e|-2222222222---2222222222-------------|
B|-2222222222---4444444444-------------|
G|-3333333333---4444444444-------------|
D|-4444444444---4444444444-------------|
A|-4444444444---2222222222-------------|
E|-2222222222--------------------------|

E
To long.

e|-----------------------------2-2-3-4-5--6-77777777-------------------------|
B|-----------------------------4-4-5-6-7--8-99999999-------------------------|
G|-----------------------------4-4-5-6-7--8-99999999-------------------------|
D|-9-9--7-6--4/7-7-6--4-2-2/4--4-4-5-6-7--8-99999999-------------------------|
A|-----------------------------2-2-3-4-5--6-77777777-------------------------|
E|---------------------------------------------------------------------------|


A,G#,F#
oh Please Oh please 
I Really wnat to know your name
Oh you Oh you i really want to know your name

e|--10-10-10-10-10-10-9-7------------------7------------------7--------------|
B|------------------------10-10-10-10-7-10---10-10-10-10-7-10---etc----------|
G|---------------------------------------------------------------------------|
D|---------------------------------------------------------------------------|
A|---------------------------------------------------------------------------|
E|---------------------------------------------------------------------------|

A,G#,F#
I really want to go home 
To catch the lastbus
So get you dowm 
Take Me Out! 




-------------------------------------------------------------------------------
                             We Found Love 
-------------------------------------------------------------------------------

Intro and verse 1 riff X8

e|-5--5-5--2-2-2-2-2--5--5-5--3-3-3-3-3--------------------------------------|
B|-7--7-7--3-3-3-3-3--7--7-7--0-0-0-0-0--------------------------------------|
G|-7--7-7--4-4-4-4-4--7--7-7--0-0-0-0-0--------------------------------------|
D|-7--7-7--4-4-4-4-4--7--7-7--0-0-0-0-0--------------------------------------|
A|-5--5-5--2-2-2-2-2--5--5-5--2-2-2-2-2--------------------------------------|
E|----------------------------3-3-3-3-3--------------------------------------|

Laughing all the way to the cell
And I've been paid off
Stood out into the sun cause I'm not done

                                                                              X2

e|---7--7-7--5-5-5--5-5--3--3-3--5-5--5-5-5----------------------------------|
B|---7--7-7--5-5-5--5-5--3--3-3--7-7--7-7-7----------------------------------|
G|---7--7-7--6-6-6--6-6--4--4-4--7-7--7-7-7----------------------------------|
D|---9--9-9--7-7-7--7-7--5--5-5--7-7--7-7-7----------------------------------|
A|---9--9-9--7-7-7--7-7--5--5-5--5-5--5-5-5----------------------------------|
E|---7--7-7--5-5-5--5-5--3--3-3----------------------------------------------|

 I'm gonna find myself a ladyfriend
 And stick by her until the end

                                                                              X2
e|-5--5-5--2-2-2-2-2--5--5-5--3-3-3-3-3--------------------------------------|
B|-7--7-7--3-3-3-3-3--7--7-7--0-0-0-0-0--------------------------------------|
G|-7--7-7--4-4-4-4-4--7--7-7--0-0-0-0-0--------------------------------------|
D|-7--7-7--4-4-4-4-4--7--7-7--0-0-0-0-0--------------------------------------|
A|-5--5-5--2-2-2-2-2--5--5-5--2-2-2-2-2--------------------------------------|
E|----------------------------3-3-3-3-3--------------------------------------|

La la la la la Layla 
I found love


e|-5~-------5-5----3~------7--5-----------------------------------------------|
B|-5~-------5-5----0~-----------8--7~--7h8--7--5--3-3-------------------------|
G|-6~-------6-6----0~---------------------------------4/6-7-7-7-7-7-----------|
D|-7~-------7-7----0~---------------------------------------------------------|
A|-7~-------7-7----2~---------------------------------------------------------|
E|-5~-------5-5----3~---------------------------------------------------------|

e|---------------------------------------------------------------------------|
B|---------------------------------------------------------------------------|
G|-4/6-7-7-7-7-7--4/6-7-7-7-7-7----------------------------------------------|
D|---------------------------------------------------------------------------|
A|---------------------------------------------------------------------------|
E|---------------------------------------------------------------------------|

                                                                              X2
e|-2--2-2--5-5-5-5-5--3--3-3--5-5-5-5-5--------------------------------------|
B|-3--3-3--7-7-7-7-7--0--0-0--7-7-7-7-7--------------------------------------|
G|-4--4-4--7-7-7-7-7--0--0-0--7-7-7-7-7--------------------------------------|
D|-4--4-4--7-7-7-7-7--0--0-0--7-7-7-7-7--------------------------------------|
A|-2--2-2--5-5-5-5-5--2--2-2--5-5-5-5-5--------------------------------------|
E|--------------------3--3-3-------------------------------------------------|



I'm gonna find myself a ladyfriend
And stick by her until the end
                                                                              X4
e|-5--5-5--2-2-2-2-2--5--5-5--3-3-3-3-3--------------------------------------|
B|-7--7-7--3-3-3-3-3--7--7-7--0-0-0-0-0--------------------------------------|
G|-7--7-7--4-4-4-4-4--7--7-7--0-0-0-0-0--------------------------------------|
D|-7--7-7--4-4-4-4-4--7--7-7--0-0-0-0-0--------------------------------------|
A|-5--5-5--2-2-2-2-2--5--5-5--2-2-2-2-2--------------------------------------|
E|----------------------------3-3-3-3-3--------------------------------------|

La la la la la Layla
I found love
Oh no

 



You are my serpentine
But I'll never look you in the eyes again
You are my one divine
But I'll never look you in the eyes again





e|--7~--5~---3----5-5-5-5-5-5-5-5-5-5-5-5-5-5-5-5-5-5-5-5-5-5-5-5-5-5-5-5-5-5-5-5|
B|--7~--5~---0----5-5-5-5-5-5-5-5-5-5-5-5-5-5-5-5-5-5-5-5-5-5-5-5-5-5-5-5-5-5-5-5|
G|--9~--7~---0----6-6-6-6-6-6-6-6-6-6-6-6-6-6-6-6-6-6-6-6-6-6-6-6-6-6-6-6-6-6-6-6|
D|--9~--7~---0----7-7-7-7-7-7-7-7-7-7-7-7-7-7-7-7-7-7-7-7-7-7-7-7-7-7-7-7-7-7-7-7|
A|--9~--7~---2----7-7-7-7-7-7-7-7-7-7-7-7-7-7-7-7-7-7-7-7-7-7-7-7-7-7-7-7-7-7-7-7|
E|--7~--5~---3----5-5-5-5-5-5-5-5-5-5-5-5-5-5-5-5-5-5-5-5-5-5-5-5-5-5-5-5-5-5-5-5|

e|---------------------------------------5--------------------------5----------|
B|---------------------------------------7--------------------------7----------|
G|---------------------------------------7--------------------------7----------|
D|---------------------------------------7--------------------------7----------|
A|-5--9-10-9--7--5--2--10-10-10--9--7--5-5--4--2--10-10-10--9--7--5-5--4--2----|
E|-----------------------------------------------------------------------------|

e|---------------------5-5--5-3--3-3--5-5---5-5--5-3--3-3--5-5---5-5--5-3--3-3--5-5-|
B|---------------------7-7--5-3--3-3--5-5---7-7--5-3--3-3--5-5---7-7--5-3--3-3--5-5-|
G|---------------------7-7--6-4--4-4--6-6---7-7--6-4--4-4--6-6---7-7--6-4--4-4--6-6-|
D|---------------------7-7--7-5--5-5--7-7---7-7--7-5--5-5--7-7---7-7--7-5--5-5--7-7-|
A|-10-10-10--9--7--5~--5-5--7-5--5-5--7-7---5-5--7-5--5-5--7-7---5-5--7-5--5-5--7-7-|
E|--------------------------5-3--3-3--5-5--------5-3--3-3--5-5--------5-3--3-3--5-5-|


           D                    Bm              A           D 
You are my serpentine, But I'll never look you in the eyes again
You are my one divine, But I'll never look you in the eyes again





THREE STARS 



e----------------------------------------------------------------
B-1/3-5-8-5-3-1---1/3-5-8-5-3-1-1/3-5-8-5-3-1---1/3-5-3-1-3-1----
G---------------2-----------------------------2------------------
D----------------------------------------------------------------
A----------------------------------------------------------------
E----------------------------------------------------------------

C              
Look up in the sky
F
Up toward the North
C
There are three new stars
                 G
Brightly shining forth
         C          
They're shining so bright
             F
From Heaven above
                  C
Gee, we're gonna miss you
     G                 C
Everybody sends their love

ohhhhh

C
In heaven there is love
F
that will put your mind at rest 
C
it comes to all 
    G
but better of not said 
    C
but there shinin oh so bright from
       F                    C
heaven above gee were gonna miss 
    G
you everybody sends their 

         C                       G      F
when the night is falling in the summer light
C                       G    F
tell me where you gonna stay tonight
         C                     G    F
when the night is falling when your around
C                          G        F
better stick it out coz im going in town 
C                                G      F
when the night is falling in the summer light
C                           G      F
better help me out cos it's coming around whoooo.


SOLO (KIND OF)

----------------------------------------------------
----------------------------------------------------
----------------------------0-0000-00-44-2----------
--2-2-2-22-3-2-0----------2----------------5-3-2----
-----------------3-----3-5----------------------5-5-
-------------------3-5------------------------------


-----------------------------------------------
-----------------------------------------------
-----------------------------------------------
2-3-2-2-2-22-3-2-0--0000-2222-3333-2222--------
------------------3--------------------22-0----
-----------------------------------------------

e----------------------------------------------------------------
B-1/3-5-8-5-3-1---1/3-5-8-5-3-1-1/3-5-8-5-3-1---1/3-5-3-1-3-1----
G---------------2-----------------------------2------------------
D----------------------------------------------------------------
A----------------------------------------------------------------
E----------------------------------------------------------------






14



Main riff
e-----------------------------------------------------------|TIMES 7  (time 4 DRUMS come in)
B-0-1-1/----13-13-13----------------------------------------| 
G-----------------------------------------------------------|
D-----------------------------------------------------------|
A-----------------------------------------------------------|
E-----------------------------------------------------------|


e-----------------------------------------------------------|TIMES 1
B-0-1-1/----------------------------------------------------|

C5            G5
Oh fourteen Oh fourteen
F5
Take me home through the night

C5            G5
Oh fourteen Oh fourteen
F5
Take me home through the night

C5            G5
Oh fourteen Oh fourteen
F5
Take me home through the night

C5            G5
Oh fourteen Oh fourteen
F5
Take me home through the night

C5 G5 F5   C5 G5 F5  

F5 F5 
F5 F5 
F5 F5 
F5 F5 

C5            G5
Oh fourteen Oh fourteen
F5
Take me home 

C5            G5
Oh fourteen Oh fourteen
F5
Take me home 

C5            G5
Oh fourteen Oh fourteen
F5
Take me home 

C5            G5
Oh fourteen Oh fourteen
F5
Take me home 


e-----------------------------------------------------------|TIMES 4
B-0-1-1/----13-13-13----------------------------------------| 
G-----------------------------------------------------------|
D-----------------------------------------------------------|
A-----------------------------------------------------------|
E-----------------------------------------------------------|

e-----------------------------------------------------------|TIMES 4
B-1-1-3-1----1--1--1--1-------------------------------------| 
G--------0-2--2--2--2--2------------------------------------|
D-----------------------------------------------------------|
A-----------------------------------------------------------|
E-----------------------------------------------------------| 


   
C5            G5
Oh fourteen Oh fourteen
F5
Take me home 

C5            G5
Oh fourteen Oh fourteen
F5
Take me home 

C5            G5
Oh fourteen Oh fourteen
F5
Take me home 

C5            G5
Oh fourteen Oh fourteen
F5
Take me home 


Slower
e-----------------------------------------------------------|TIMES 4
B-1-----3-3/5---5/8---8/10----------------------------------| 
G-----------------------------------------------------------|
D-----------------------------------------------------------|
A-----------------------------------------------------------|
E-----------------------------------------------------------|

C5            G5
Oh fourteen Oh fourteen
F5
Take me home through the night

C5            G5
Oh fourteen Oh fourteen
F5
Take me home through the night





-----------------------------------------------------------------------------
                             Brand New Song 
-----------------------------------------------------------------------------



E,A,E,A,E,A,E,A
 

E                    A
I've got a brand new song
E                    A
I've got a brand new song
E                      A
It's gonna be a number 1
E                      A
It's gonna be a number 1 


Hit it. Oi!

E,A,E,A,E,A,E,A

    

    C#m        Abm          Am
And I'd love to show the world
    I'd love to show the world
    I'd love to show the world

         E
my new song
   B
it keeps me up all night long

E,A,E,A,E,A,E,A

yeah!!

E                    A
I've got a brand new car
E                    A
I've got a brand new car
E                  A
I hope im gonna go far in my brand new car


E,A,E,A,E,A,E,A

    C#m        Abm          Am
And I'd love to show the world
    I'd love to show the world
    I'd love to show the world my new car

E,B

E,A,E,A,E,A,E,A

E                    A
I've got a brand new song
E                 A
It's 2 minutes 50-1


E,A,E,A,E,A,E,A
E,A,E,A,E,A,E,A
E,A,E,A

    C#m        Abm          Am
And I'd love to show the world
    I'd love to show the world
    I'd love to show the world 
 
        E
my new song
   B                     E(strum like Crazy)
it keeps me up all night long












Добавлено: 15.08.2015
Другие материалы по этой песне:
  • Аккорды и текст

Страница создана 15.08.2015
http://primanota.ru/palma-violets/180-album-chords.htm
Привет, Гость.
Предлагаем пройти революционный курс по гитаре.
Подарок от PrimaNota.Ru, забирай!