PrimaNota.ru - самый крупный в мире бесплатный архив песенных текстов, аккордов, табулатур и нот


Pallbearer - Foreigner - таба, видео

Регистрация Запомнить меня
Войти через:  Facebook Google Twitter Vk Yandex Mail.ru

Pallbearer - Foreigner - таба, видео

Печатать
Просмотров: 76
Авторы текста: Brett Campbell, Joseph D. Rowland
-------------------------------------------------------------------------------
                             Foreigner - Pallbearer
-------------------------------------------------------------------------------
Tabbed by: David Reed
E-mail:

Tuning: I play this in standard because I don't know Pallbearer's tuning.
Also, I can't figure out the notes at
the very end of the intro. The rest of this is perfect though. This is one of my
favorite songs and I hope you 
like my tab of it. Thanks!

e|------------------5--------------------------------------------------------|
B|--------------5---------8~---8p6-6\5-8-5-3-5br5-5-5\3----------------------|
G|---------------------7---------------------------------2-2/5-5-4-7-5-------|
D|----7-5-7------------------------------------------------------------------|
A|---------------------------------------------------------------------------|
E|---------------------------------------------------------------------------|

e|---------------------------------------------------------------------------|
B|------------------------------------------------15-17-13-12h13p12----------|
G|--4h5p4------------7-7-10-9-7-5~-----14-12-14~--------------------12/14 14~|
D|---------5/7-7-7-----------------------------------------------------------|
A|---------------------------------------------------------------------------|
E|---------------------------------------------------------------------------|

e|--12-15-12-17-12-----------------------------------------------------------|
B|-------------------15-17br-17~17~17~17~17\15----------------15-13-12h13p12-|
G|----------------------------------------------14-14/17-16------------------|
D|---------------------------------------------------------------------------|
A|---------------------------------------------------------------------------|
E|---------------------------------------------------------------------------|

e|---------------------------------------------------------------------------|
B|---------------------------------------------------------------------------|
G|--12/14-14~----------------------------------------------------------------|
D|---------------------------------------------------------------------------|
A|---------------------------------------------------------------------------|
E|---------------------------------------------------------------------------|




************************************

| /   slide up
| \   slide down
| h   hammer-on
| p   pull-off
| ~   vibrato
| +   harmonic
| x   Mute note
| b   Bend
| pb  Pre-bend
| br  Bend release
| pbr Pre-bend release
| brb Bend release bend

************************************
Добавлено: 16.12.2015
Другие материалы по этой песне:

Страница создана 16.12.2015
http://primanota.ru/pallbearer/foreigner-chords.htm
Привет, Гость.
Предлагаем пройти революционный курс по гитаре.
Подарок от PrimaNota.Ru, забирай!