PrimaNota.ru - самый крупный в мире бесплатный архив песенных текстов, аккордов, табулатур и нот


Pale Young Gentlemen - Shes All Mine I Think - таба, видео

Регистрация Запомнить меня
Войти через:  Facebook Google Twitter Vk Yandex Mail.ru

Pale Young Gentlemen - Shes All Mine I Think - таба, видео

Печатать
Просмотров: 64
Уроки эстрадного вокала в Санкт-Петербурге
-------------------------------------------------------------------------------
                             She's All Mine, I Think - Pale Young Gentlemen
-------------------------------------------------------------------------------

e|--------------|
B|--------5-----|
G|-----6-----6--|       repeated 10x 
D|--6-----------|       Lyrics start with the 7th bar
A|--------------|       
E|--4-----------|

I often think on early days
And why I never ... 

e|--------|--------0-----|--------0-----|--------0-----|--------0-----|
B|--------|-----2-----2--|-----2-----2--|-----2-----2--|-----2-----2--|
G|-----6--|--2-----------|--2-----------|--2-----------|--2-----------|
D|--6-----|--------------|--------------|--------------|--------------|
A|--------|--2-----------|--2-----------|--2-----------|--2-----------|
E|--4-----|--------------|--------------|--------------|--------------|

... left this place. All my young, ambitious...

e|--------2-----|--------2-----|--2--|
B|-----2-----2--|-----2-----2--|--4--|
G|--2-----------|--2-----------|--4--|
D|--------------|--------------|-----|
A|--------------|--------------|--2--|
E|--2-----------|--2-----------|-----|

... plans buried in these callused ...
... hands. (start again at the beginning for the second verse:)

As giant trees so strong and sound
until the lightning brings them down
I don't bend or lean or sway
and all the rest remains the ... 

e|--------------|--------------|--------------|--------------|
B|--------5-----|--------5-----|--------5-----|--------5-----|
G|-----6-----6--|-----6-----6--|-----6-----6--|-----6-----6--|
D|--6-----------|--6-----------|--6-----------|--6-----------|
A|--------------|--------------|--------------|--------------|
E|--4-----------|--4-----------|--4-----------|--4-----------|

... same.

e|--------------|--------------|--------------|--------------|--------0-----|--------0-----|
B|--------5-----|--------5-----|--------5-----|--------5-----|-----2-----2--|-----2-----2--|
G|-----6-----6--|-----6-----6--|-----6-----6--|-----6-----6--|--2-----------|--2-----------|
D|--6-----------|--6-----------|--6-----------|--6-----------|--------------|--------------|
A|--------------|--------------|--------------|--------------|--2-----------|--2-----------|
E|--4-----------|--4-----------|--4-----------|--4-----------|--------------|--------------|

Then, one morning took a walk, like I always do

e|--------4-----|--------4-----|--------4-----|--------------|--------------|-----|
B|-----4-----4--|-----4-----4--|-----4-----4--|--------5-----|--------5-----|--5--|
G|--5-----------|--5-----------|--5-----------|-----6-----6--|-----6-----6--|--6--|
D|--------------|--------------|--------------|--6-----------|--6-----------|--6--|
A|--------------|--------------|--------------|--------------|--------------|-----|
E|--4-----------|--4-----------|--4-----------|--4-----------|--4-----------|--4--|

along the bank, like I always do

[strum the chords from here on]

E C#m B
Ooooh...
             E                  B
I saw her swimming in the river.

                       E        B       E       B
We met so unexpectedly.

E       B       E       B       E       B       E       
Ooohh...

       B                E
She's all mine, I think,

       B                E
she's all mine, I think,

       B                E
she's all mine, I think.

-----

Used chords:

E       022100
C#m     x4665x
B       x24442
Добавлено: 23.07.2013
Вам также может быть интересно:
Другие материалы по этой песне:
  • Аккорды и текст

Страница создана 23.07.2013
http://primanota.ru/pale-young-gentlemen/shes-all-mine-i-think-chords.htm
Привет, Гость.
Предлагаем пройти революционный курс по гитаре.
Подарок от PrimaNota.Ru, забирай!