PrimaNota.ru - самый крупный в мире бесплатный архив песенных текстов, аккордов, табулатур и нот


Paj Ntshua Nplaim - Mam Hlub Lwm Tiam - аккорды и текст, видео

Регистрация Запомнить меня
Войти через:  Facebook Google Twitter Vk Yandex Mail.ru

Paj Ntshua Nplaim - Mam Hlub Lwm Tiam - аккорды и текст, видео

Печатать
Просмотров: 72
Mam Hlub Lwm Tiam
Paj Ntshua Nplaim
Mam Hlub Lwm Tiam by Paj Ntshua Nplaim 
Capo 1st Fret to Play along with song 
Did this kinda fast hopefully works out for you guys... Thanks
Billy Xiong tkxiong@yahoo.com


	  D			            Bm
Txoj kev hlub muab zais cia rau hauv nruab siab 
         D			        F#m
Mam rov los sib nrhiav hlub rau fab lwm tiam
	 Em			     Bm
Vim tiam no hmoov tsis txog wb thiaj tsis tau nyob ua ke
         Em	           A	       D
Wb txoj kev hlub tiam neej no ua siab tseg 

       D		           Bm
Ua ib siab mus ua koj lub neej kom zoo
             D				    F#m 
Tsis txhob ntsoo txog kuv lawm moog me leej nus
         Em			 Bm
Muaj ib hnub ntiajteb tig wb rov tau los sib ntsib dua
         Em		Am		     D
Mam sib zeem hlub tshua li nkauj muam nraug nus 
    

         Bm		         F#m
Vim tiam no luag tsis pom zoo wb los sib sau
              Bm			   F#m
Wb thiaj tsis tau sib qee los nyob koom ib lub neej
         Em				Bm
Nyob zoo koj moog me leej nus thov kom koj mus ntsib tus hlub
            Em	         A		  D
Cia rau lwm tiam wb mas rov qab los sib nrhiav dua 


Ntawm lub ncauj lam hais tias ua siab ncaim mus 
Hauv nruab ntsws mob khib rhe tsis xav hais lus 
Xob thaum twb thiaj li cheem tau lub siab kom txhob nco koj 
Lam tau nruab ntsws ntshe koj tawm ntawm kuv lub neej 
Ntxawm nco koj npau twg los yuav cia kav liam 
Muab khaws cia ua dab neej faus rau nruab siab 
Txawm taim no nco npau twb los yuav tau ua twj ywm 
Tus lub siab ntshaw xav tiam yog wb ntawd tsis txog 
Yog lwm tiam tseem muaj wb mam los sib hlub dua 
Kev npau suab tiam no ntshe tsis muaj hnub yuav yog tiag 
Kev cia siab yav tag los cas hnub no yog kev tu siab 
Dhau tagkis mus wb kev hlub ces yog luag tus

Solo 
E|---------------------10--------------------------------------|
B|--7—10-10(half bend)----10 (half bend)--7---7-10-7----7------|
G|------------------------------------------9--------9---------|
D|-------------------------------------------------------------|
A|-------------------------------------------------------------|
E|-------------------------------------------------------------|

E|---------------------10--------------------------------------|
B|--7—10-10(half bend)----10 (half bend)--7---7-10-7----7------|
G|------------------------------------------9--------9---------|
D|-------------------------------------------------------------|
A|-------------------------------------------------------------|
E|-------------------------------------------------------------|

E|--------------------------------------------------------7----|
B|--------7------------------------------------------7-10------|
G|--9-7-9---9---7~9 (half bend)-7-9-7~9-------7~9-9------------|
D|------------9------------------------9---7~9-----------------|
A|-------------------------------------------------------------|
E|-------------------------------------------------------------|

E|-------------------------------------------------------------|
B|--10-7-------------------------------------------------------|
G|---------9-7-------------------------------------------------|
D|-------------------------------------------------------------|
A|-------------------------------------------------------------|
E|-------------------------------------------------------------|

Добавлено: 13.06.2012
Другие материалы по этой песне:
  • Аккорды и текст

Страница создана 13.06.2012
http://primanota.ru/paj-ntshua-nplaim/mam-hlub-lwm-tiam-chords.htm
Привет, Гость.
Предлагаем пройти революционный курс по гитаре.
Подарок от PrimaNota.Ru, забирай!