PrimaNota.ru - самый крупный в мире бесплатный архив песенных текстов, аккордов, табулатур и нот


Pain - Youth Of The Nation - аккорды и текст, видео

Регистрация Запомнить меня
Войти через:  Facebook Google Twitter Vk Yandex Mail.ru

Pain - Youth Of The Nation - аккорды и текст, видео

Печатать
Просмотров: 126
Уроки эстрадного вокала в Санкт-Петербурге
Youth Of The Nation
Pain
Standart tuning

1)
-----14----15--14-12-14--12-14-15-15-14-12-
-12-----12---------------------------------
-------------------------------------------
-------------------------------------------
-------------------------------------------
-------------------------------------------

-----14----15--14-12-----12----------------
-12-----12-----------15-----15-14-14-15-14-
-------------------------------------------
-------------------------------------------
-------------------------------------------
-------------------------------------------
____________________________________________
2)
|-----14----15--14-12-14--12-14-15-15-14-12-
|-12-----12---------------------------------
|-------------------------------------------
|-------------------------------------------
|-------------------------------------------
|-------------------------------------------
|
|-----------15--------14--------15----------
|-12----------------------------------------
|-------------------------------------------
|-------------------------------------------
|-------------------------------------------
|-------------------------------------------

|------14----15--14-12-----12---------------
|-12-----12-----------15-----15-14-14-15-14-
|-------------------------------------------
|-------------------------------------------
|-------------------------------------------
|-------------------------------------------
|
|------------12-----------------------------
|-12------------------15---------14---------
|-------------------------------------------
|-------------------------------------------
|-------------------------------------------
|-------------------------------------------
____________________________________________
3)CHORUS

|-----14----15--14-12-14--12-14-15-15-14-12-
|-12-----12---------------------------------
|-------------------------------------------
|-------------------------------------------
|-------------------------------------------
|-------------------------------------------
|
|-----------15--------14--------15----------
|-12----------------------------------------
|-------------------------------------------
|-------------------------------------------
|-------------------------------------------
|-------------------------------------------
|
|-------------------------------------------
|-------------------------------------------
|-----------9-9-9-9---7-7-7-7---------------
|-9-9-9-9---9-9-9-9---7-7-7-7---5-5-5-5-----
|-9-9-9-9---7-7-7-7---5-5-5-5---5-5-5-5-----
|-7-7-7-7-----------------------3-3-3-3-----

|------14----15--14-12-----12---------------
|-12-----12-----------15-----15-14-14-15-14-
|-------------------------------------------
|-------------------------------------------
|-------------------------------------------
|-------------------------------------------
|
|------------12-----------------------------
|-12------------------15---------14---------
|-------------------------------------------
|-------------------------------------------
|-------------------------------------------
|-------------------------------------------
|
|-------------------------------------------
|-------------------------------------------
|-----------9-9-9-9---7-7-7-7---------------
|-9-9-9-9---9-9-9-9---7-7-7-7---8-8-8-8-----
|-9-9-9-9---7-7-7-7---5-5-5-5---8-8-8-8-----
|-7-7-7-7-----------------------6-6-6-6-----

2 times
____________________________________________
4)VERSE
    Hm    Em     D     G           Hm   Em     D     A#
The only thing I ever wanted, the only thing I ever needed 
И так далее...
____________________________________________
5)Pre-Chorus

---------------------------
---------------------------
-9--9--9--9--12--12--12----
-9--9--9--9--12--12--12----
-7--7--7--7--10--10--10----
---------------------------

just wipe your own ass and - shut your mouth
____________________________________________

Structure
1-2-3-4-5-3-4-5-3-2-3-end
____________________________________________

    
The only thing I ever wanted, the only thing I ever needed
is my own way - I gotta have it all
I donЃLt want your opinion, I donЃLt need your ideas
stay the fuck out of my face, stay away from me
I am my own god - I do as I please

just wipe your own ass and - shut your mouth

I had enough and youЃLre going down - shut your mouth
what comes around you know goes around

my mind is playing tricks on me
I am not as stable as I used to be
pushed and shoved, you know youЃLre going too far


I will not break my back for you no more,
I am gonna go my way
I am gonna take control
time to wake up and dig myself out of this hell

just wipe your own ass and - shut your mouth

I had enough and youЃLre going down - shut your mouth
what comes around you know goes around - shut your mouth
youЃLre getting what your ego deserves - shut your mouth
what comes around you know goes around - shut your mouth

shut your mouth

I had enough and youЃLre going down - shut your mouth
what comes around you know goes around

shut your mouth
shut your mouth
shut your mouth
________________________________________________

Строки (табулаткрные), соединенные вертикальными чертами,
обозначают, что их над играть одновременно.

Добавлено: 24.09.2013
Вам также может быть интересно:
Другие материалы по этой песне:
  • Аккорды и текст

Страница создана 24.09.2013
http://primanota.ru/pain/youth-of-the-nation-chords.htm
Привет, Гость.
Предлагаем пройти революционный курс по гитаре.
Подарок от PrimaNota.Ru, забирай!