PrimaNota.ru - самый крупный в мире бесплатный архив песенных текстов, аккордов, табулатур и нот


Pain - Milk - аккорды и текст, видео

Регистрация Запомнить меня
Войти через:  Facebook Google Twitter Vk Yandex Mail.ru

Pain - Milk - аккорды и текст, видео

Печатать
Просмотров: 167
Milk
Pain
Tuning (low to high): Eb A D G B E

Intro:

E|-------------------------------------------------------------
B|-------------------------------------------------------------
G|-------------------------------------------------------------
D|--1-------1-------1-------1----------------------------------
A|----3-3-3---2-2-2---1-1-1---0-0-0----------------------------
Eb|-----------------------------------3-3-3-3-3-5-3------------

Main riff:

E|----------------------------------------
B|----------------------------------------
G|----------------------------------------
D|----------------------------------------
A|------0-------0-------0-----------------
Eb|-0-0---0-3-3---3-0-0---0-3-5-3---------
Добавлено: 06.01.2014
Другие материалы по этой песне:
  • Аккорды и текст

Страница создана 06.01.2014
http://primanota.ru/pain/milk-chords.htm
Привет, Гость.
Предлагаем пройти революционный курс по гитаре.
Подарок от PrimaNota.Ru, забирай!