PrimaNota.ru - самый крупный в мире бесплатный архив песенных текстов, аккордов, табулатур и нот


Pain - Dont Let Me Down - аккорды и текст, таба, видео

Регистрация Запомнить меня
Войти через:  Facebook Google Twitter Vk Yandex Mail.ru

Pain - Dont Let Me Down - аккорды и текст, таба, видео

Печатать
Просмотров: 299
Уроки эстрадного вокала в Санкт-Петербурге
Авторы: Peter Tägtgren

Dont Let Me Down
Pain
(A-D-G-C-F-A)
(listen to song for structure)
 
-------------------------|----------------------------------------------------
-------------------------|----------------------------------------------------
-------------------------|----------------------------------------------------
-------------------------|----------------------------------------------------
--5h7---5h7---5h7---8-8--|----------------------------------------------------
------0-----0-----0------|----------------------------------------------------
#1A#

-------------------------|----------------------------------------------------
-------------------------|----------------------------------------------------
-------------------------|----------------------------------------------------
--7/9---7/9---7/9--10-10-|----------------------------------------------------
--5/7---5/7---5/7---8--8-|----------------------------------------------------
------0-----0-----0------|----------------------------------------------------
#1B#

----------------------------------|-------------------------------------------
----------------------------------|-------------------------------------------
----------------------------------|-------------------------------------------
--0-4-4-4-4-5-5-5-5-5-5-5-5-0-0-0-|-------------------------------------------
--0-2-2-2-2-3-3-3-3-3-3-3-3-0-0-0-|-------------------------------------------
----------------------------------|-------------------------------------------
. . . . . . . . . . . . . . . . #2A#

----------------------------------|-------------------------------------------
----------------------------------|-------------------------------------------
----------------------------------|-------------------------------------------
--0-4-4-4-4-5-5-5-5-7-7-7-7-0-0-0-|-------------------------------------------
--0-2-2-2-2-3-3-3-3-5-5-5-5-0-0-0-|-------------------------------------------
----------------------------------|-------------------------------------------
. . . . . . . . . . . . . . . . #2B#

--------------------------------|---------------------------------------------
--------------------------------|---------------------------------------------
--------------------------------|---------------------------------------------
--2---4---5---7-7/9-------------|---------------------------------------------
--0---2---3---5-5/7-2-----------|---------------------------------------------
--------------------0-----------|---------------------------------------------
(play this in a 3A-3B-3C-3B patern) #3A#

--------------------------------|---------------------------------------------
--------------------------------|---------------------------------------------
--------------------------------|---------------------------------------------
--2---4---5---7-7/9\5-5/7\4-4/5-|---------------------------------------------
--0---2---3---5-5/7\3-3/5\2-2/3-|---------------------------------------------
--------------------------------|---------------------------------------------
#3B#

--------------------------------|---------------------------------------------
--------------------------------|---------------------------------------------
--------------------------------|---------------------------------------------
-2---4---5---7-7/9------------0-|---------------------------------------------
-0---2---3---5-5/7-2------0h2---|---------------------------------------------
-------------------0------------|---------------------------------------------
#3C#

--------------------------------------------------|---------------------------
--------------------------------------------------|---------------------------
--------------------------------------------------|---------------------------
------------------------------------------------0-|---------------------------
--5h7---5h7---5h7---5h7---5h7---5h7---5h7---0h2---|---------------------------
------0-----0-----0-----0-----0-----0-----0-------|---------------------------
(play this 4 times with lead 1) #4#

--------------------------------------------------|---------------------------
------------------------8-10----8h10p8-\6---6h8---|---------------------------
-/7h9--------------/8-9---------------------------|---------------------------
--------------------------------------------------|---------------------------
--------------------------------------------------|---------------------------
--------------------------------------------------|---------------------------
#LEAD1#

--------------------------------------------------------|---------------------
--------------------------------------------------------|---------------------
--------------------------------------------------------|---------------------
--5------7---9------9-8-7-6-5------7---9-------0-2------|---------------------
--3------5---7------7-6-5-4-3------5---7---0h2---0------|---------------------
--------------------------------------------------------|---------------------
(play this once to fit lead 2) #5#

-----------------------------------------|------------------------------------
--12^-12^-12^-12^---17^--17^--17^--17^---|------------------------------------
-----------------------------------------|------------------------------------
-----------------------------------------|------------------------------------
-----------------------------------------|------------------------------------
-----------------------------------------|------------------------------------


-----------------------------------------------------|------------------------
--12-12h15p12----------------------------------------|------------------------
--------------15-14-12-10-10h13p10-------------------|------------------------
-----------------------------------13-12-10-8-8h11p8-|------------------------
-----------------------------------------------------|------------------------
-----------------------------------------------------|------------------------


-----------------------------------|------------------------------------------
-----------------------------------|------------------------------------------
-----------------------------------|------------------------------------------
-----------------------------------|------------------------------------------
--11-10-8-8-11-8-11-10-8-7v--------|------------------------------------------
-----------------------------------|------------------------------------------
Добавлено: 23.10.2013
Другие материалы по этой песне:
  • Аккорды и текст

Страница создана 11.05.2012
http://primanota.ru/pain/dont-let-me-down-chords.htm
Привет, Гость.
Предлагаем пройти революционный курс по гитаре.
Подарок от PrimaNota.Ru, забирай!