PrimaNota.ru - самый крупный в мире бесплатный архив песенных текстов, аккордов, табулатур и нот


Pain Confessor - Another Door - текст песни, таба, видео

Регистрация Запомнить меня
Войти через:  Facebook Google Twitter Vk Yandex Mail.ru

Pain Confessor - Another Door - текст песни, таба, видео

Печатать
Просмотров: 174
Уроки эстрадного вокала в Санкт-Петербурге
-------------------------------------------------------------------------------
                             ANOTHER DOOR – Pain Confessor
-------------------------------------------------------------------------------
Tabbed by: Mcmartini
Email: mcmartini@seznam.cz

Tuning: B C# B E G# C#

Intro
Guitar 1
C#|-------------------------------------------------------------------------------------|
G#|-------------------------------------------------------------------------------------|
E |-------------------------------------------------------------------------------------|
B |-------------------------------------------------------------------------------------|
C#|-------------------------------------------------------------------------------------|
B |-------------------------------------------------------------------------------------|

Guitar 2
C#|-------------------------------------------------------------------------------------|
G#|----12---12---11---11--12---12---14---14---12---12---11---11-14---14---11---12-------|
E |--9----9----9----9--------9----9----9----9----9----9----9-------9----9----9----------|
B |-------------------------------------------------------------------------------------|
C#|-------------------------------------------------------------------------------------|
B |-------------------------------------------------------------------------------------|

Guitar 1
C#|-------------------------------------------------------------------------------------|
G#|-------------------------------------------------------------------------------------|
E |-------------------------------------------------------------------------------------|
B |-------------------------------------------------------------------------------------|
C#|-------------------------------------------------------------------------------------|
B |-------------------------------------------------------------------------------------|

Guitar 2
C#|-------------------------------------------------------------------------------------|
G#|----12---12---11---11--12---12---14---14---12---12---11---11-14---14---11---12-------|
E |--9----9----9----9--------9----9----9----9----9----9----9-------9----9----9----------|
B |-------------------------------------------------------------------------------------|
C#|-------------------------------------------------------------------------------------|
B |-------------------------------------------------------------------------------------|

Guitar 1 (4x) 
C#|-------------------------------------------------------------------------------------|
G#|-------------------------------------------------------------------------------------|
E |-------------------------------------------------------------------------------------|
B |----------6--------------------------------------2-----------------4-----------------|
C#|----------6--------------------------------------2-----------------4-----------------|
B |-----0----6---------------------------------0----2------------0----4-----------------|

Guitar 2 (4x) 
C#|-------------------------------------------------------------------------------------|
G#|----12---12---11---11--12---12---14---14---12---12---11---11-14---14---11---12-------|
E |-------------------------------------------------------------------------------------|
B |-------------------------------------------------------------------------------------|
C#|-------------------------------------------------------------------------------------|
B |-------------------------------------------------------------------------------------|

Pre-Chorus 1
Guitar 1 (2x)
C#|-------------------------------------------------------------------------------------|
G#|-------------------------------------------------------------------------------------|
E |-------------------------------------------------------------------------------------|
B |----4/6--6--6-----------0--2-----2--4----------4/6--6--6-----------0--4-----2--------|
C#|----4/6--6--6-----------0--2-----2--4----------4/6--6--6-----------0--4-----2--------|
B |----4/6--6--6-----------0--2-----2--4----------4/6--6--6-----------0--4-----2-2-2-2--|
       d    d  u           d  u     d  u          d    d  u           d  u     d . . .

Guitar 2 (2x)
C#|-------------------------------------------------------------------------------------|
G#|----12---12---11---11--12---12---14---14--11-12---12---11---11-14---14----11---12----|
E |-------------------------------------------------------------------------------------|
B |-------------------------------------------------------------------------------------|
C#|-------------------------------------------------------------------------------------|
B |-------------------------------------------------------------------------------------|

Verse 1
Guitar 1 (3x)
C#|-------------------------------------------------------------------------------------|
G#|-------------------------------------------------------------------------------------|
E |-------------------------------------------------------------------------------------|
B |----2-----2-----------2-----2-----------4/6--6--6--6-6-4--4-4------------------------|
C#|----2-----2-----------2-----2-----------4/6--6--6--6-6-4--4-4------------------------|
B |----2--x--2--9--8--x--2--x--2--9--8--x--4/6--6--6--6-6-4--4-4--x-x-x-----------------|
                                           d    d  u  u d u  u d  . . .

Guitar 1 (1x)
C#|-------------------------------------------------------------------------------------|
G#|-------------------------------------------------------------------------------------|
E |-------------------------------------------------------------------------------------|
B |----2-----2-----------2-----2-----------4/6--6--6--8--4-4-4--------------------------|
C#|----2-----2-----------2-----2-----------4/6--6--6--8--4-4-4--------------------------|
B |----2--x--2--9--8--x--2--x--2--9--8--x--4/6--6--6--8--4-4-4--x-x-x-------------------|
                                           d    d  u  u  d d u  . . .

Pre-Chorus 2
Guitar 1 (2x)
C#|-------------------------------------------------------------------------------------|
G#|-------------------------------------------------------------------------------------|
E |-------------------------------------------------------------------------------------|
B |-----6----6----6----6---2----2----4----4------6----6----6----6--4----4----2----------|
C#|-----6----6----6----6---2----2----4----4------6----6----6----6--4----4----2----------|
B |-----6----6----6----6---2----2----4----4------6----6----6----6--4----4----2--2-2-2---|
        d    d    d    d   d    d    d    d      d    d    d    d  d    d    d  . . .      

Guitar 2 (2x)
C#|-------------------------------------------------------------------------------------|
G#|----12---12---11---11--12---12---14---14--11-12---12---11---11-14---14----11---12----|
E |-------------------------------------------------------------------------------------|
B |-------------------------------------------------------------------------------------|
C#|-------------------------------------------------------------------------------------|
B |-------------------------------------------------------------------------------------|

Verse 2
Guitar 1 
C#|-------------------------------------------------------------------------------------|
G#|-------------------------------------------------------------------------------------|
E |-------------------------------------------------------------------------------------|
B |----2-----2-----------2-----2-----------4/6--6--6--6-6-4--4-4------------------------|
C#|----2-----2-----------2-----2-----------4/6--6--6--6-6-4--4-4------------------------|
B |----2--x--2--9--8--x--2--x--2--9--8--x--4/6--6--6--6-6-4--4-4--x-x-x-----------------|
                                           d    d  u  u d u  u d  . . .

Guitar 2
C#|-------------------------------------------------------------------------------------|
G#|-------------------------------------------------------------------------------------|
E |-------------------------------------------------------------------------------------|
B |----------------------------------------6~---------8-9-------------------------------|
C#|-------------------------------------------------------9~----------------------------|
B |-------------------------------------------------------------------------------------|

Guitar 1 
C#|-------------------------------------------------------------------------------------|
G#|-------------------------------------------------------------------------------------|
E |-------------------------------------------------------------------------------------|
B |----2-----2-----------2-----2-----------4/6--6--6--6-6-4--4-4------------------------|
C#|----2-----2-----------2-----2-----------4/6--6--6--6-6-4--4-4------------------------|
B |----2--x--2--9--8--x--2--x--2--9--8--x--4/6--6--6--6-6-4--4-4--x-x-x-----------------|
                                           d    d  u  u d u  u d  . . .

Guitar 2
C#|-------------------------------------------------------------------------------------|
G#|-------------------------------------------------------------------------------------|
E |-------------------------------------------------------8-----------------------------|
B |----------------------------------------6~---------8h9----9-8------------------------|
C#|-------------------------------------------------------------------------------------|
B |-------------------------------------------------------------------------------------|

Guitar 1 
C#|-------------------------------------------------------------------------------------|
G#|-------------------------------------------------------------------------------------|
E |-------------------------------------------------------------------------------------|
B |----2-----2-----------2-----2-----------4/6--66666--4--44444-------------------------|
C#|----2-----2-----------2-----2-----------4/6--66666--4--44444-------------------------|
B |----2--x--2--9--8--x--2--x--2--9--8--x--4/6--66666--4--44444--x-x-x------------------|
                                           d    dudud  u  ududu  . . . 

Guitar 2
C#|-------------------------------------------------------------------------------------|
G#|-------------------------------------------------------------------------------------|
E |-------------------------------------------------------------------------------------|
B |-------------------------------------------------------------------------------------|
C#|----6-8br-6/-------------------------------------------------------------------------|
B |-------------------------------------------------------------------------------------|

Guitar 1 
C#|-------------------------------------------------------------------------------------|
G#|-------------------------------------------------------------------------------------|
E |-------------------------------------------------------------------------------------|
B |----2-----2-----------2-----2-----------4/6--6--6--8--4-4-4--------------------------|
C#|----2-----2-----------2-----2-----------4/6--6--6--8--4-4-4--------------------------|
B |----2--x--2--9--8--x--2--x--2--9--8--x--4/6--6--6--8--4-4-4-x-x-x--------------------|
                                           d    d  u  u  d d u . . .
Guitar 2
C#|-------------------------------------------------------------------------------------|
G#|-------------------------------------------------------------------------------------|
E |-------------------------------------------------------------------------------------|
B |-------------------------------------------------------------------------------------|
C#|-------------------------------------------------------------------------------------|
B |-------------------------------------------------------------------------------------|

Chorus (4x)
Guitar 1
C#|-------------------------------------------------------------------------------------|
G#|-------------------------------------------------------------------------------------|
E |-------------------------------------------------------------------------------------|
B |----6-----6------2-----2------4------4------4--2-4/6---------------------------------|
C#|----6-----6------2-----2------4--44444--44444--2-4/6---------------------------------|
B |----6--x--6------2--x--2------4--44444--44444--2-4/6--0-0-0--------------------------|
           let ring     let ring    dudu   dudu
                                    ....   ....          . . . 
Guitar 2        
C#|-------------------------------------------------------------------------------------|
G#|---17----16-----11----12-------------------------------------------------------------|
E |-------------------------------------------------------------------------------------|
B |-------------------------------------------------------------------------------------|
C#|-------------------------------------------------------------------------------------|
B |-------------------------------------------------------------------------------------|

Pre-Chorus 2

Verse 3
Guitar 1 
C#|-------------------------------------------------------------------------------------|
G#|-------------------------------------------------------------------------------------|
E |-------------------------------------------------------------------------------------|
B |----2-----2-----------2-----2-----------4/6--6--6--6-6-4--4-4------------------------|
C#|----2-----2-----------2-----2-----------4/6--6--6--6-6-4--4-4------------------------|
B |----2--x--2--9--8--x--2--x--2--9--8--x--4/6--6--6--6-6-4--4-4--x-x-x-----------------|
                                           d    d  u  u d u  u d  . . .

Guitar 2
C#|-------------------------------------------------------------------------------------|
G#|-------------------------------------------------------------------------------------|
E |-------------------------------------------------------------------------------------|
B |----------------------------------------6~---------8-9--6-4\-------------------------|
C#|-------------------------------------------------------------------------------------|
B |-------------------------------------------------------------------------------------|

Guitar 1 
C#|-------------------------------------------------------------------------------------|
G#|-------------------------------------------------------------------------------------|
E |-------------------------------------------------------------------------------------|
B |----2-----2-----------2-----2-----------4/6--6--6--6-6-4--4-4------------------------|
C#|----2-----2-----------2-----2-----------4/6--6--6--6-6-4--4-4------------------------|
B |----2--x--2--9--8--x--2--x--2--9--8--x--4/6--6--6--6-6-4--4-4--x-x-x-----------------|
                                           d    d  u  u d u  u d  . . .

Guitar 2
C#|-------------------------------------------------------------------------------------|
G#|-------------------------------------------------------------------------------------|
E |-------------------------------------------------------6-----------------------------|
B |----------------------------------------6---------8h9-----8--------------------------|
C#|------------------------------------------6------------------------------------------|
B |-------------------------------------------------------------------------------------|

Guitar 1 
C#|-------------------------------------------------------------------------------------|
G#|-------------------------------------------------------------------------------------|
E |-------------------------------------------------------------------------------------|
B |----2-----2-----------2-----2-----------4/6--66666--4--44444-------------------------|
C#|----2-----2-----------2-----2-----------4/6--66666--4--44444-------------------------|
B |----2--x--2--9--8--x--2--x--2--9--8--x--4/6--66666--4--44444--x-x-x------------------|
                                           d    dudud  u  ududu  . . .   

Guitar 2
C#|-------------------------------------------------------------------------------------|
G#|-------------------------------------------------------------------------------------|
E |-------------------------------------------------------------------------------------|
B |-------------------------------------------------------------------------------------|
C#|----6-8br-6/-------------------------------------------------------------------------|
B |-------------------------------------------------------------------------------------|

Guitar 1 
C#|-------------------------------------------------------------------------------------|
G#|-------------------------------------------------------------------------------------|
E |-------------------------------------------------------------------------------------|
B |----2-----2-----------2-----2-----------4/6--6--6--8--4-4-4--------------------------|
C#|----2-----2-----------2-----2-----------4/6--6--6--8--4-4-4--------------------------|
B |----2--x--2--9--8--x--2--x--2--9--8--x--4/6--6--6--8--4-4-4--x-x-x-------------------|
                                           d    d  u  u  d d u  . . .
Guitar 2
C#|-------------------------------------------------------------------------------------|
G#|-------------------------------------------------------------------------------------|
E |-------------------------------------------------------------------------------------|
B |-------------------------------------------------------------------------------------|
C#|-------------------------------------------------------------------------------------|
B |-------------------------------------------------------------------------------------|

Chorus

Solo
Guitar 1
C#|-------------------------------------------------------------------------------------|
G#|-------------------------------------------------------------------------------------|
E |-------------------------------------------------------------------------------------|
B |----2-----2---------2---------4/6---------------4------------------------------------|
C#|----2-----2---------2---------4/6---------------4------------------------------------|
B |----2--x--2--0-0-0--2--0-0-0--4/6------------x--4--x-x-x-----------------------------|
                . . .     . . .                    d  . . .
Guitar 2
C#|-------------------------------------------------------------------------------------|
G#|-------------------------------------------------------------------------------------|
E |------------------------------6------------------------------------------------------|
B |----6--------8------9-----------9--8-6--9h8h6---8------------------------------------|
C#|--------------------------------------------------9----------------------------------|
B |-------------------------------------------------------------------------------------|

Guitar 1
C#|-------------------------------------------------------------------------------------|
G#|-------------------------------------------------------------------------------------|
E |-------------------------------------------------------------------------------------|
B |----2-----2---------2---------4/6---6/8------8\4-------------------------------------|
C#|----2-----2---------2---------4/6---6/8------8\4-------------------------------------|
B |----2--x--2--0-0-0--2--0-0-0--4/6---6/8------8\4--x-x-x------------------------------|
                . . .     . . .                      . . .

Guitar 2
C#|-------------------------------------------------------------------------------------|
G#|----9--------------------------------------------------------------------------------|
E |-----------------------8br6---8-----8-6----------------------------------------------|
B |------9-8-9--9-9-8-9-------------------------9-8-------------------------------------|
C#|-------------------------------------------------------------------------------------|
B |-------------------------------------------------------------------------------------|

Guitar 1
C#|-------------------------------------------------------------------------------------|
G#|-------------------------------------------------------------------------------------|
E |-------------------------------------------------------------------------------------|
B |----2-----2---------2-----2---------4/6---------------4------------------------------|
C#|----2-----2---------2-----2---------4/6---------------4------------------------------|
B |----2--x--2--0-0-0--2--x--2--0-0-0--4/6------------x--4--x-x-x-----------------------|
                . . .           . . .                       . . .
Guitar 2
C#|-------------------------------------------------------------------------------------|
G#|--/12~\------------/12-11-12~------12-11h12p11p9-7--7/9/11-\-------------------------|
E |-------------------------------------------------------------------------------------|
B |-------------------------------------------------------------------------------------|
C#|-------------------------------------------------------------------------------------|
B |-------------------------------------------------------------------------------------|

Guitar 1
C#|-------------------------------------------------------------------------------------|
G#|-------------------------------------------------------------------------------------|
E |-------------------------------------------------------------------------------------|
B |----2-----2---------2-----2---------4/6-----6/8--8\4---------------------------------|
C#|----2-----2---------2-----2---------4/6-----6/8--8\4---------------------------------|
B |----2--x--2--0-0-0--2--x--2--0-0-0--4/6-----6/8--8\4---------------------------------|
                . . .           . . .                           

Guitar 2
C#|-------------------------------------------------------------------------------------|
G#|-------------------------------------------------------------------------------------|
E |---------------------------------------------6-4*-3*---------------------------------|
B |-------9-8----------9--8------------9--8-9-----------6-4*-6*-------------------------|
C#|----6------6~------------6~----------------------------------------------------------|
B |-------------------------------------------------------------------------------------|

Chorus

Pre-Chorus 2

Outro
Guitar 1
C#|-------------------------------------------------------------------------------------|
G#|-------------------------------------------------------------------------------------|
E |-------------------------------------------------------------------------------------|
B |-----6------------------6---------------------4-----------------4--------------------|
C#|-----6------------------6---------------------4-----------------4--------------------|
B |--x--6---------------x--6------------------x--4--------------x--4--------------------|

Guitar 2 
C#|-------------------------------------------------------------------------------------|
G#|----12---12---11---11--12---12---14---14--11-12---12---11---11-14---14----11---12----|
E |-------------------------------------------------------------------------------------|
B |-------------------------------------------------------------------------------------|
C#|-------------------------------------------------------------------------------------|
B |-------------------------------------------------------------------------------------|

Guitar 1
C#|-------------------------------------------------------------------------------------|
G#|-------------------------------------------------------------------------------------|
E |-------------------------------------------------------------------------------------|
B |-----6------------------6---------------------4-----------------4--------------------|
C#|-----6------------------6---------------------4-----------------4--------------------|
B |--x--6---------------x--6------------------x--4--------------x--4--------------------|

Guitar 2
C#|-------------------------------------------------------------------------------------|
G#|----12---12---11---11--12---12---14---14--11-12---12---11---11-14---14----11---12----|
E |-------------------------------------------------------------------------------------|
B |-------------------------------------------------------------------------------------|
C#|-------------------------------------------------------------------------------------|
B |-------------------------------------------------------------------------------------|

Guitar 1 
C#|-------------------------------------------------------------------------------------|
G#|-------------------------------------------------------------------------------------|
E |-------------------------------------------------------------------------------------|
B |----4/6-6-6-6-6-------0-2-2-2--2/4-4-4--------4/6-6-6-6-6-----0-4-4-4----------------|
C#|----4/6-6-6-6-6-------0-2-2-2--2/4-4-4--------4/6-6-6-6-6-----0-4-4-4----------------|
B |----4/6-6-6-6-6-------0-2-2-2--2/4-4-4--------4/6-6-6-6-6-----0-4-4-4----2-2-2--2-2-2|
       d   d u d u       d u u d  u   d u        d   d u d u     d u d u    . . .  . . .

Guitar 2 
C#|-------------------------------------------------------------------------------------|
G#|----12---12---11---11--12---12---14---14--11-12---12---11---11-14---14----11---12----|
E |-------------------------------------------------------------------------------------|
B |-------------------------------------------------------------------------------------|
C#|-------------------------------------------------------------------------------------|
B |-------------------------------------------------------------------------------------|

Guitar 1 
C#|-------------------------------------------------------------------------------------|
G#|-------------------------------------------------------------------------------------|
E |-------------------------------------------------------------------------------------|
B |----4/6-6-6-6-6-------0-2-2-2--2/4-4-4--------4/6-6-6-6-6-----0-4-4-4----------------|
C#|----4/6-6-6-6-6-------0-2-2-2--2/4-4-4--------4/6-6-6-6-6-----0-4-4-4----------------|
B |----4/6-6-6-6-6-------0-2-2-2--2/4-4-4--------4/6-6-6-6-6-----0-4-4-4----2-2-2--2-2-2|
       d   d u d u       d u u d  u   d u        d   d u d u     d u d u    . . .  . . .

Guitar 2        
C#|-------------------------------------------------------------------------------------|
G#|----12---12---11---11--12---12---14---14--11-12---12---11---11-14---14----11---12----|
E |-------------------------------------------------------------------------------------|
B |-------------------------------------------------------------------------------------|
C#|-------------------------------------------------------------------------------------|
B |-------------------------------------------------------------------------------------|

Guitar 1
C#|-------------------------------------------------------------------------------------|
G#|-------------------------------------------------------------------------------------|
E |-------------------------------------------------------------------------------------|
B |----6--------------------------------------------------------------------------------|
C#|----6--------------------------------------------------------------------------------|
B |----6--------------------------------------------------------------------------------|
      let ring

************************************
| /   slide up
| \   slide down
| h   hammer-on
| p   pull-off
| ~   vibrato
| *   harmonic
| b   bend
| br  bend release
| d   downstroke
| u   upstroke
| .   palm mute
************************************
Добавлено: 01.07.2012
Другие материалы по этой песне:
  • Аккорды и текст

Страница создана 01.07.2012
http://primanota.ru/pain-confessor/another-door-chords.htm
Привет, Гость.
Предлагаем пройти революционный курс по гитаре.
Подарок от PrimaNota.Ru, забирай!