PrimaNota.ru - самый крупный в мире бесплатный архив песенных текстов, аккордов, табулатур и нот


Pagans Mind - Through Osiris Eyes - текст песни, таба, бас-таба, видео

Регистрация Запомнить меня
Войти через:  Facebook Google Twitter Vk Yandex Mail.ru

Pagans Mind - Through Osiris Eyes - текст песни, таба, бас-таба, видео

Печатать
Просмотров: 159
As recorded by Pagan's Mind
(From the 2002 Album CELESTIAL ENTRANCE)

Transcribed by Cody Simons
        

Words and Music by Pagan's Mind
Arranged by Pagan's Mind

Gtr I (E A D G B E) - 'Guitar 1'
Gtr II (E A D G B E) - 'Guitar 2'
Gtr III (E A D G B E) - 'Keyboard Lead'
Gtr IV (E A D G B E) - 'Keyboard Strings'

 Intro - 0:00
  Q=175
  C5                                    C°                           G#5
 9/4
  Gtr I
  H        Q   Q   Q  Q   Q   Q   Q     Q   Q   Q   Q   Q  Q   Q   E E E E
|-------------------------------------|------------------------------------|
|-------------------------------------|------------------------------------|
|-------------------------------------|------------------------------------|
|-5\----------------------------------|------------------------------------|
|-3\----------------------------------|------------------------------6-6-6-|
|-------------------------------------|------------------------------4-4-4-|
|
| Gtr II
| E  E E q   E E E q  E E E q   E E E   E E E q   E E E q  E E E q   E E E
|-------------------------------------|------------------------------------|
|-------------------------------------|------------------------------------|
|-------------------------------------|------------------------------------|
|-5--5-5-5---5-5-5-5--5-5-5-5---5-5-5-|-4-4-4-4---4-4-4-4--4-4-4-4---6-6-6-|
|-3--3-3-3---3-3-3-3--3-3-3-3---3-3-3-|-3-3-3-3---3-3-3-3--3-3-3-3---6-6-6-|
|-------------------------------------|------------------------------4-4-4-|


 Keyboard Solo - 0:06
  C5
  Gtr II
  E E E q     E E E q   E E E q   E E E
|---------------------------------------|
|---------------------------------------|
|---------------------------------------|
|-5-5-5-5-----5-5-5-5---5-5-5-5---5-5-5-|
|-3-3-3-3-----3-3-3-3---3-3-3-3---3-3-3-|
|---------------------------------------|
|
| Gtr III
| H       +E  E E E E E E E E E E E E E
|---------------------------------------|
|-------------------------------------8-|
|-9-------(9)---5-7-9---5-7-9---5-7-9---|
|-------------5-------5-------5---------|
|---------------------------------------|
|---------------------------------------|


  C°
  E E E q     E E E q  E E E q  E E E
|---------------------------------------|
|---------------------------------------|
|---------------------------------------|
|-4-4-4-4-----4-4-4-4--4-4-4-4--4-4-4---|
|-3-3-3-3-----3-3-3-3--3-3-3-3--3-3-3---|
|---------------------------------------|
|
| H       +Q    E E W             E E
|---------------------------------------|
|-7-------(7)---5-----------------7-8---|
|-----------------7---------------------|
|-------------------7-------------------|
|---------------------------------------|
|---------------------------------------|


  C5
  E E E q     E E E q   E E E q   E E E
|---------------------------------------|
|---------------------------------------|
|---------------------------------------|
|-5-5-5-5-----5-5-5-5---5-5-5-5---5-5-5-|
|-3-3-3-3-----3-3-3-3---3-3-3-3---3-3-3-|
|---------------------------------------|
|
| H       +E  E E E E E E E E E E E E E
|---------------------------------------|
|-------------------------------------8-|
|-9-------(9)---5-7-9---5-7-9---5-7-9---|
|-------------5-------5-------5---------|
|---------------------------------------|
|---------------------------------------|


  C°
  E E E q     E E E q  E E E q  E  E  E
|-----------------------------------------|
|-----------------------------------------|
|-----------------------------------------|
|-4-4-4-4-----4-4-4-4--4-4-4-4--4--4--4---|
|-3-3-3-3-----3-3-3-3--3-3-3-3--3--3--3---|
|-----------------------------------------|
|
| H       +Q    E E W             +Q
|-------------------5-------------(5)-----|
|-7-------(7)---5-------------------------|
|-----------------7-----------------------|
|-----------------------------------------|
|-----------------------------------------|
|-----------------------------------------|


  C5                                    C°
  E E E q   E E E q   E E E q   E E E   E E E q   E E E q   E E E q   E E E
|-------------------------------------|---------------------------------------|
|-------------------------------------|---------------------------------------|
|-------------------------------------|---------------------------------------|
|-5-5-5-5---5-5-5-5---5-5-5-5---5-5-5-|-4-4-4-4---4-4-4-4---4-4-4-4---4-4-4---|
|-3-3-3-3---3-3-3-3---3-3-3-3---3-3-3-|-3-3-3-3---3-3-3-3---3-3-3-3---3-3-3---|
|-------------------------------------|---------------------------------------|
|
| E E E E E E E E E E E E E E E E E E   E E E E E E E E E E E E E E E E E E
|-------------------------5-----------|---------------------------------------|
|-7-------5---7-------5-------7-5-----|-7-------5---7-------5---7-------5-7---|
|-----7-----------7---------------7---|-----7-----------7-----------7---------|
|---4---4---4---4---4---4---4-------4-|---4---4---4---4---4---4---4---4-------|
|-------------------------------------|---------------------------------------|
|-------------------------------------|---------------------------------------|


  C5                                       C°
                                          8/4
  E E E q     E E E q   E E E q    E E E   E E E q   E E E q   E E E Q   +E
|----------------------------------------|-----------------------------------|
|----------------------------------------|-----------------------------------|
|----------------------------------------|-----------------------------------|
|-5-5-5-5-----5-5-5-5---5-5-5-5----5-5-5-|-4-4-4-4---4-4-4-4---4-4-4-4---(4)-|
|-3-3-3-3-----3-3-3-3---3-3-3-3----3-3-3-|-3-3-3-3---3-3-3-3---3-3-3-3---(3)-|
|----------------------------------------|-----------------------------------|
|
| H       +E  E E E Q.    E E E Q.     E   E E E E E E E E E E E E E Q.
|----------------------------------------|-----------------------------------|
|-8-------(8)-------------------5--------|-----7-------------------5-7-------|
|---------------5---7-------5------------|-5-------5---7---5---7-------------|
|-------------5---5-------5---5--------5-|---5---5---5---5---5---5-----------|
|----------------------------------------|-----------------------------------|
|----------------------------------------|-----------------------------------|


 Verse 1 - 0:30
  D5/A
  E E E q  E E E  q   E E E Q  +E     E  E E q  E E E  q   E E E Q  +E
|----------------------------------|------------------------------------|
|----------------------------------|------------------------------------|
|----------------------------------|------------------------------------|
|-7-7-7-7--7-7-7--7---7-7-7-7--(7)-|--7--7-7-7--7-7-7--7---7-7-7-7--(7)-|
|-5-5-5-5--5-5-5--5---5-5-5-5--(5)-|--5--5-5-5--5-5-5--5---5-5-5-5--(5)-|
|-5-5-5-5--5-5-5--5---5-5-5-5--(5)-|--5--5-5-5--5-5-5--5---5-5-5-5--(5)-|
|
| Gtr IV
| W              +W                  +W               +W
|----------------------------------|------------------------------------|
|----------------------------------|------------------------------------|
|-7--------------(7)---------------|-(7)--------------(7)---------------|
|-7--------------(7)---------------|-(7)--------------(7)---------------|
|-5--------------(5)---------------|-(5)--------------(5)---------------|
|-5--------------(5)---------------|-(5)--------------(5)---------------|


  E
  E E E q  E E E  q   E E E Q  +E     E  E E q  E E E  q   E E Q  Q
|----------------------------------|---------------------------------|
|----------------------------------|---------------------------------|
|----------------------------------|---------------------------------|
|-6-6-6-6--6-6-6--6---6-6-6-6--(6)-|--6--6-6-6--6-6-6--6---6-6-6--6--|
|-7-7-7-7--7-7-7--7---7-7-7-7--(7)-|--7--7-7-7--7-7-7--7---7-7-7--7--|
|-4-4-4-4--4-4-4--4---4-4-4-4--(4)-|--4--4-4-4--4-4-4--4---4-4-4--4--|
|
| W              +W                  +W               +W
|----------------------------------|---------------------------------|
|----------------------------------|---------------------------------|
|-4--------------(4)---------------|-(4)--------------(4)------------|
|-6--------------(6)---------------|-(6)--------------(6)------------|
|-7--------------(7)---------------|-(7)--------------(7)------------|
|-0--------------(0)---------------|-(0)--------------(0)------------|


  D5/A
  E E E q  E E E  q   E E E Q  +E     E  E E q  E E E  q   E E E Q  +E
|----------------------------------|------------------------------------|
|----------------------------------|------------------------------------|
|----------------------------------|------------------------------------|
|-7-7-7-7--7-7-7--7---7-7-7-7--(7)-|--7--7-7-7--7-7-7--7---7-7-7-7--(7)-|
|-5-5-5-5--5-5-5--5---5-5-5-5--(5)-|--5--5-5-5--5-5-5--5---5-5-5-5--(5)-|
|-5-5-5-5--5-5-5--5---5-5-5-5--(5)-|--5--5-5-5--5-5-5--5---5-5-5-5--(5)-|
|
| W              +W                  +W               +W
|----------------------------------|------------------------------------|
|----------------------------------|------------------------------------|
|-7--------------(7)---------------|-(7)--------------(7)---------------|
|-7--------------(7)---------------|-(7)--------------(7)---------------|
|-5--------------(5)---------------|-(5)--------------(5)---------------|
|-5--------------(5)---------------|-(5)--------------(5)---------------|


  E                                                              F
  E E E q  E E E  q   E E E Q  +E     E  E E q  E E E q  E E  E  Q   +E
|----------------------------------|-------------------------------------|
|----------------------------------|-------------------------------------|
|----------------------------------|-------------------------------------|
|-6-6-6-6--6-6-6--6---6-6-6-6--(6)-|--6--6-6-6--6-6-6-6--6-6--6--7---(7)-|
|-7-7-7-7--7-7-7--7---7-7-7-7--(7)-|--7--7-7-7--7-7-7-7--7-7--7--8---(8)-|
|-4-4-4-4--4-4-4--4---4-4-4-4--(4)-|--4--4-4-4--4-4-4-4--4-4--4--5---(5)-|
|
| W              +W                  +W.                     +E  Q.
|----------------------------------|-----------------------------5-------|
|----------------------------------|-----------------------------6-------|
|-4--------------(4)---------------|-(4)---------------------(4)-5-------|
|-6--------------(6)---------------|-(6)---------------------(6)-7-------|
|-7--------------(7)---------------|-(7)---------------------(7)-8-------|
|-0--------------(0)---------------|-(0)---------------------(0)-1-------|


 Bridge 1 - 0:52
  D5        C#5      C5        B5      D5        C#5      C5        B5
 9/4
  E E E q   E E E q  E E E q   E E E   E E E q   E E E q  E E E q   E E E
|------------------------------------|------------------------------------|
|------------------------------------|------------------------------------|
|-7-7-7-7---6-6-6-6--5-5-5-5---4-4-4-|-7-7-7-7---6-6-6-6--5-5-5-5---4-4-4-|
|-7-7-7-7---6-6-6-6--5-5-5-5---4-4-4-|-7-7-7-7---6-6-6-6--5-5-5-5---4-4-4-|
|-5-5-5-5---4-4-4-4--3-3-3-3---2-2-2-|-5-5-5-5---4-4-4-4--3-3-3-3---2-2-2-|
|------------------------------------|------------------------------------|
|
| Q   Q   Q   Q   Q  Q   Q   Q   Q     Q   Q   Q   Q   Q  Q   Q   Q   Q
|------------------------------------|------------------------------------|
|------------------------------------|------------------------------------|
|------------------------------------|------------------------------------|
|------------------------------------|------------------------------------|
|------------------------------------|------------------------------------|
|------------------------------------|------------------------------------|
|------------------------------------|------------------------------------|


  D5       C#5     C5      B5        D5       C#5     C5      B5
 8/4                                10/4
  E E  E E E E E E E E E E E E E E   E E  E E E E E E E E E E E E E E E E Q
|----------------------------------|------------------------------------------|
|----------------------------------|------------------------------------------|
|----------------------------------|------------------------------------------|
|------7-7-----6-6-----5-5-----4-4-|------7-7-----6-6-----5-5-----4-4---------|
|-5-5--5-5-4-4-4-4-3-3-3-3-2-2-2-2-|-5-5--5-5-4-4-4-4-3-3-3-3-2-2-2-2---------|
|-5-5--5-5-4-4-4-4-3-3-3-3-2-2-2-2-|-5-5--5-5-4-4-4-4-3-3-3-3-2-2-2-2-2-2-2---|
|
| Q    Q   Q   Q   Q   Q   Q   Q     Q    Q   Q   Q   Q   Q   Q   Q   Q   Q
|----------------------------------|------------------------------------------|
|-----10-------9-------8-------7---|-----10-------9-------8-------7-----------|
|------7-------6-------5-------4---|------7-------6-------5-------4-----------|
|------7-------6-------5-------4---|------7-------6-------5-------4-----------|
|----------------------------------|------------------------------------------|
|----------------------------------|------------------------------------------|


                                    1.
           F#5/C#     F#5/C#     F#5/C#          F#5/CA5   F#5
   8/4
    E  E E Q  E E E E Q  E E E E E   +E  E E E E Q  E H    H
||---------------------------------|-----------------------------||
||o--------------------------------|----------------------------o||
||---------------------------------|-----------------------------||
||---------------------------------|-----------------------------||
||o--------------------------------|------------------7----2----o||
||--2--2-0-2--0-2-2-0-2--0-2-2-0-2-|-(2)-0-2-2-0-2--0-5----0-----||
|
|   Gtr IV
|   Q.     Q  Q   Q   Q  Q   Q   E   +E  Q   Q   Q  E H    H
||---------------------------------|-----------------------------||
||o--------7----------7----------7-|-(7)---------7----5---------o||
||---------6----------6----------6-|-(6)---------6---------6-----||
||---------4----------4----------4-|-(4)---------4----7----4-----||
||o--------4----------4----------4-|-(4)---------4--------------o||
||---------------------------------|-----------------------------||


  2.
  G5/D               A/E
   PM--------------|
   S S E E E E E E E  E E E E E E +Q
|---------------------------------------|
|---------------------------------------|
|---------------------------------------|
|---------------------------------------|
|------------5----------7---5---7-(7)\--|
|--3-3-3-3-3-3-3-3-3--5-5-5-5-5---------|
|
|  W                  W
|-10------------------9-----------------|
|--8-----------------10-----------------|
|--7------------------6-----------------|
|--5------------------7-----------------|
|--5------------------7-----------------|
|---------------------------------------|


 Chorus - 1:15
  B5        A5            G5            F#5
 7/4                     8/4
   W         Q.    Q.     W        +Q   Q.   Q.
|-----------------------|-------------------------|
|-----------------------|-------------------------|
|--4---------2-----2----|-------------------------|
|--4---------2-----2----|-5--------(5)--4----4----|
|--2---------0-----0----|-5--------(5)--4----4----|
|-----------------------|-3--------(3)--2----2----|
|
| Gtr IV
|  W         Q.    Q.     W         Q   Q.   Q.
|-10---------9-----9----|-7--------10---9----9----|
|-12--------10----10----|-8--------(8)--7----7----|
|-11---------9-----9----|-7--------(7)--9----6----|
|--9---------7-----7----|-5--------(5)--4----5----|
|-----------------------|-------------------------|
|-----------------------|-------------------------|


  Em             G5          F#5       E5     Bb5   F#5
                            9/4
            PM-|
  W         E  E Q.   Q.      W          E  E  H     H
|--------------------------|------------------------------|
|-0------------------------|------------------------------|
|-0------------------------|-------------------3----------|
|-2--------------5----5----|--4----------------3-----4----|
|-2---------2--2-5----5----|--4----------2-----1-----4----|
|-0---------0--2-3----3----|--2----------0--2--------2----|
|
| W        +Q    Q.   Q.      W         +Q     H     H
|-7--------(7)---3----3----|-10--------(10)----9----------|
|-5--------(5)---3----3----|-10--------(10)---11----11----|
|-4--------(4)---0----0----|-11--------(11)---11----11----|
|-2--------(2)-------------|--4---------(4)----8-----8----|
|--------------------------|------------------------------|
|-0--------------3----3----|--2----------------6-----6----|


  B5        A5            G5             F#5
 7/4                     8/4
                                    PM-|
   W         Q.    Q.     W         E  E Q.   Q.
|-----------------------|--------------------------|
|-----------------------|--------------------------|
|--4---------2-----2----|--------------------------|
|--4---------2-----2----|-5--------------4----4----|
|--2---------0-----0----|-5---------5--5-4----4----|
|-----------------------|-3---------3--3-2----2----|
|
|  W         Q.    Q.     W         Q    Q.   Q.
|-10---------9-----9----|-7--------10----9----9----|
|-12--------10----10----|-8--------(8)---7----7----|
|-11---------9-----9----|-7--------(7)-------------|
|--9---------7-----7----|-5--------(5)---4----5----|
|-----------------------|--------------------------|
|-----------------------|--------------------------|


  Em        E5     G5
 9/4
              PM-|
   W          E  E H    H
|-----------------------------|
|-----------------------------|
|--0--------------------------|
|--2---------------5----5\----|
|--2----------2--2-5----5\----|
|--0----------0--0-3----3\----|
|
|  W         +Q    H    H
|-14---------------3----3-----|
|-12--------(12)---3----3-----|
|-12--------(12)---0----0-----|
|--2--------------------------|
|-----------------------------|
|--0---------------3----3-----|


 Approaching Riff - 1:33
  N.C.
 8/4
  E E E E E E E E E E E E E E E E   E E E E E E E E  E  E E E E E E E
|---------------------------------|------------------------------------|
|---------------------------------|------------------------------------|
|---------------------------------|------------------------------------|
|-----4---2---4---5---4---2---2-4-|-----4---2---4----5----4---2---2-4--|
|---------------------------------|-----------------------------0------|
|-2-2---2---2---2---2---2---2-----|-2-2---2---2---2-(2)S3---3----------|
|
| PM----------------------------------------------------------------|
| E E E E E E E E E E E E E E E E   E E E E E E E E  E  E E E E E E E
|---------------------------------|------------------------------------|
|---------------------------------|------------------------------------|
|---------------------------------|------------------------------------|
|---------------------------------|------------------------------------|
|---------------------------------|------------------------------------|
|-2-2---2-2-2---2-2-2---2-2-2---2-|-2-2---2-2-2---2--3--3---3-3-3---5--|


                                   10/4
  E E E E E E E E E E E E E E E E   E E E E E E E E E E E E E E E E H
|---------------------------------|--------------------------------------|
|---------------------------------|--------------------------------------|
|---------------------------------|--------------------------------------|
|-----4---2---4---5---4---2---2-4-|-----4---2---4---5---4-------2-5------|
|-2-2---2---2---2---2---2---2-----|-3-3---3---3---3---3---3-3-5----------|
|---------------------------------|--------------------------------------|
|
| PM--------------------------------------|   PM--|   PM----------|
| E E E E E E E E E E E E E E E E   E E E E E E E E E E E E E E E E H
|---------------------------------|--------------------------------------|
|---------------------------------|--------------------------------------|
|---------------------------------|--------------------------------------|
|---------------------------------|-----------------------------2-5------|
|-2-2---2-2-2---2-2-2---2-2-2---2-|-3-3---3---3---3---3---3-3-5----------|
|---------------------------------|--------------------------------------|
|
| Gtr IV
| W               W                 E E E E E E E E E E E E E E E E H
|---------------------------------|--------------------------------------|
|---------------------------------|-----7---5---7---8---7-------5-8------|
|---------------------------------|-5-5---5---5---5---5---5-5-7----------|
|---------------------------------|--------------------------------------|
|---------------------------------|--------------------------------------|
|---------------------------------|--------------------------------------|


 Verse 2 - 1:45
  D5/A
 8/4
  E E E q  E E E  q   E E E Q  +E     E  E E q  E E E  q   E E E Q  +E
|----------------------------------|-------------------------------------|
|----------------------------------|-------------------------------------|
|----------------------------------|-------------------------------------|
|-7-7-7-7--7-7-7--7---7-7-7-7--(7)-|--7--7-7-7--7-7-7--7---7-7-7-7--(7)--|
|-5-5-5-5--5-5-5--5---5-5-5-5--(5)-|--5--5-5-5--5-5-5--5---5-5-5-5--(5)--|
|-5-5-5-5--5-5-5--5---5-5-5-5--(5)-|--5--5-5-5--5-5-5--5---5-5-5-5--(5)--|
|
| Gtr IV
| W              +W                  +W               +W
|----------------------------------|-------------------------------------|
|----------------------------------|-------------------------------------|
|-7--------------(7)---------------|-(7)--------------(7)----------------|
|-7--------------(7)---------------|-(7)--------------(7)----------------|
|-5--------------(5)---------------|-(5)--------------(5)----------------|
|-5--------------(5)---------------|-(5)--------------(5)----------------|


  E/Ab
  E E E q  E E E  q   E E E Q  +E     E  E E q  E E E  q   E E Q  Q
|----------------------------------|---------------------------------|
|----------------------------------|---------------------------------|
|----------------------------------|---------------------------------|
|-6-6-6-6--6-6-6--6---6-6-6-6--(6)-|--6--6-6-6--6-6-6--6---6-6-6--6--|
|-7-7-7-7--7-7-7--7---7-7-7-7--(7)-|--7--7-7-7--7-7-7--7---7-7-7--7--|
|-4-4-4-4--4-4-4--4---4-4-4-4--(4)-|--4--4-4-4--4-4-4--4---4-4-4--4--|
|
| W              +W                  +W               +W
|----------------------------------|---------------------------------|
|----------------------------------|---------------------------------|
|-4--------------(4)---------------|-(4)--------------(4)------------|
|-6--------------(6)---------------|-(6)--------------(6)------------|
|-7--------------(7)---------------|-(7)--------------(7)------------|
|-0--------------(0)---------------|-(0)--------------(0)------------|


  D5/A
  E E E q  E E E  q   E E E Q  +E     E  E E q  E E E  q   E E E Q  +E
|----------------------------------|------------------------------------|
|----------------------------------|------------------------------------|
|----------------------------------|------------------------------------|
|-7-7-7-7--7-7-7--7---7-7-7-7--(7)-|--7--7-7-7--7-7-7--7---7-7-7-7--(7)-|
|-5-5-5-5--5-5-5--5---5-5-5-5--(5)-|--5--5-5-5--5-5-5--5---5-5-5-5--(5)-|
|-5-5-5-5--5-5-5--5---5-5-5-5--(5)-|--5--5-5-5--5-5-5--5---5-5-5-5--(5)-|
|
| W              +W                  +W               +W
|----------------------------------|------------------------------------|
|----------------------------------|------------------------------------|
|-7--------------(7)---------------|-(7)--------------(7)---------------|
|-7--------------(7)---------------|-(7)--------------(7)---------------|
|-5--------------(5)---------------|-(5)--------------(5)---------------|
|-5--------------(5)---------------|-(5)--------------(5)---------------|


  E/Ab                                                           F/A
  E E E q  E E E  q   E E E Q  +E     E  E E q  E E E q  E E  E  Q   +E
|----------------------------------|-------------------------------------|
|----------------------------------|-------------------------------------|
|----------------------------------|-------------------------------------|
|-6-6-6-6--6-6-6--6---6-6-6-6--(6)-|--6--6-6-6--6-6-6-6--6-6--6--7---(7)-|
|-7-7-7-7--7-7-7--7---7-7-7-7--(7)-|--7--7-7-7--7-7-7-7--7-7--7--8---(8)-|
|-4-4-4-4--4-4-4--4---4-4-4-4--(4)-|--4--4-4-4--4-4-4-4--4-4--4--5---(5)-|
|
| W              +W                  +W.                     +E  Q.
|----------------------------------|-----------------------------5-------|
|----------------------------------|-----------------------------6-------|
|-4--------------(4)---------------|-(4)---------------------(4)-5-------|
|-6--------------(6)---------------|-(6)---------------------(6)-7-------|
|-7--------------(7)---------------|-(7)---------------------(7)-8-------|
|-0--------------(0)---------------|-(0)---------------------(0)-1-------|


   Bridge 2 - 2:06
    D5        C#5      C5        B5
   9/4
    E E E q   E E E q  E E E q   E E E
||--------------------------------------||-|
||o------------------------------------o||-|
||--7-7-7-7---6-6-6-6--5-5-5-5---4-4-4--||-|
||--7-7-7-7---6-6-6-6--5-5-5-5---4-4-4--||-|
||o-5-5-5-5---4-4-4-4--3-3-3-3---2-2-2-o||-|
||--------------------------------------||-|
|
|   Q   Q   Q   Q   Q  Q   Q   Q   Q
||--------------------------------------||-|
||o------------------------------------o||-|
||--------------------------------------||-|
||--------------------------------------||-|
||o------------------------------------o||-|
||--------------------------------------||-|


    D5       C#5      C5       B5
    PM-------------------------------|
    E. E. E. E. E. E. E. E. E. E. E. E.
||----------------------------------------||
||o--------------------------------------o||
||----------------------------------------||
||--7--7--7--6--6--6--5--5--5--4--4--4----||
||o-5--5--5--4--4--4--3--3--3--2--2--2---o||
||--5--5--5--4--4--4--3--3--3--2--2--2----||
|
|   e. e. e. e. e. e. e. e. e. e. e. e.
||----------------------------------------||
||o--------------------------------------o||
||----------------------------------------||
||--7--7--7--6--6--6--5--5--5--4--4--4----||
||o-5--5--5--4--4--4--3--3--3--2--2--2---o||
||----------------------------------------||


 Chorus - 2:18
  B5        A5            G5            F#5
 7/4                     8/4
   W         Q.    Q.     W        +Q   Q.   Q.
|-----------------------|-------------------------|
|-----------------------|-------------------------|
|--4---------2-----2----|-------------------------|
|--4---------2-----2----|-5--------(5)--4----4----|
|--2---------0-----0----|-5--------(5)--4----4----|
|-----------------------|-3--------(3)--2----2----|
|
|  W         Q.    Q.     W         Q   Q.   Q.
|-10---------9-----9----|-7--------10---9----9----|
|-12--------10----10----|-8--------(8)--7----7----|
|-11---------9-----9----|-7--------(7)--9----6----|
|--9---------7-----7----|-5--------(5)--4----5----|
|-----------------------|-------------------------|
|-----------------------|-------------------------|


  Em             G5          F#5       E5     Bb5   F#5
                            9/4
            PM-|
  W         E  E Q.   Q.      W          E  E  H     H
|--------------------------|------------------------------|
|--------------------------|------------------------------|
|-0------------------------|-------------------3----------|
|-2--------------5----5----|--4----------------3-----4----|
|-2---------2--2-5----5----|--4----------2-----1-----4----|
|-0---------0--2-3----3----|--2----------0--2--------2----|
|
| W        +Q    Q.   Q.      W         +Q     H     H
|-7--------(7)---3----3----|-10--------(10)----9----------|
|-5--------(5)---3----3----|-10--------(10)---11----11----|
|-4--------(4)---0----0----|-11--------(11)---11----11----|
|-2--------(2)-------------|--4---------(4)----8-----8----|
|--------------------------|------------------------------|
|-0--------------3----3----|--2----------------6-----6----|


  B5           A5            G5             F#5
 7/4                        8/4
           PM|                         PM-|
   H.      E E  Q.    Q.     W         E  E Q.   Q.
|--------------------------|--------------------------|
|--------------------------|--------------------------|
|--4------------2-----2----|--------------------------|
|--4-------4-4--2-----2----|-5--------------4----4----|
|--2-------2-2--0-----0----|-5---------5--5-4----4----|
|--------------------------|-3---------3--3-2----2----|
|
|  W            Q.    Q.     W         Q    Q.   Q.
|-10------------9-----9----|-7--------10----9----9----|
|-12-----------10----10----|-8--------(8)---7----7----|
|-11------------9-----9----|-7--------(7)-------------|
|--9------------7-----7----|-5--------(5)---4----5----|
|--------------------------|--------------------------|
|--------------------------|--------------------------|


  Em               G5
 9/4
              PM-|
   W          E  E H    H
|-----------------------------|
|-----------------------------|
|--0--------------------------|
|--2---------------5----5\----|
|--2----------2--2-5----5\----|
|--0----------0--0-3----3\----|
|
|  W         +Q    H    H
|-14---------------3----3-----|
|-12--------(12)---3----3-----|
|-12--------(12)---0----0-----|
|--2--------------------------|
|-----------------------------|
|--0---------------3----3-----|


 Approaching Riff - 2:36
  N.C.
 8/4
  E E E E E E E E E E E E E E E E   E E E E E E E E E E E E E E E E
|---------------------------------|----------------------------------|
|---------------------------------|----------------------------------|
|---------------------------------|----------------------------------|
|-----4---2---4---5---4---2---2h4-|-----4---2---4---5---4---2---2h4--|
|---------------------------------|----------------------------------|
|-2-2---2---2---2---2---2---2-----|-0-0---0---0---0---0---0---0------|
|
| Gtr I
| PM--------------------------------------|   PM--|   PM--|   PM--|
| E E E E E E E E E E E E E E E E   E E E E E E E E E E E E E E E E
|---------------------------------|----------------------------------|
|---------------------------------|----------------------------------|
|---------------------------------|----------------------------------|
|---------------------------------|----------------------------------|
|---------------------------------|----------------------------------|
|-2-2---2-2-2---2-2-2---2-2-2---2-|-0-0---0---0---0---0---0---0---0--|
|
| Gtr III
| E E E E E E E E E E E E E E E E   E E E E E E E E E E E E E E E E
|---------------------------------|----------------------------------|
|-----7---5---7---8---7---5---5-7-|-----7---5---7---8---7---5---5-7--|
|---------------------------------|----------------------------------|
|-4-4---4---4---4---4---4---4-----|-2-2---2---2---2---2---2---2------|
|---------------------------------|----------------------------------|
|---------------------------------|----------------------------------|


  E E E E E E E E E E E E E E E E   E E E E E E E E E E E E E E E E
|---------------------------------|---------------------------------|
|---------------------------------|---------------------------------|
|---------------------------------|---------------------------------|
|-0-0-4-0-2-0-4-0-5-0-4-0-2-0-2h4-|-----4---2---4---5---4---2---2h4-|
|---------------------------------|-3-3---3---3---3---3---3---3-----|
|---------------------------------|---------------------------------|
|
| PM----|   PM--|   PM--|   PM------------|   PM--|   PM--|   PM--|
| E E E E E E E E E E E E E E E E   E E E E E E E E E E E E E E E E
|---------------------------------|---------------------------------|
|---------------------------------|---------------------------------|
|---------------------------------|---------------------------------|
|---------------------------------|---------------------------------|
|-5-5---5---5---5---5---5---5---5-|-3-3---3---3---3---3---3---3---3-|
|---------------------------------|---------------------------------|
|
| E E E E E E E E E E E E E E E E   E E E E E E E E E E E E E E E E
|---------------------------------|---------------------------------|
|-----7---5---7---8---7---5---5-7-|-----7---5---7---8---7---5---5-7-|
|---------------------------------|---------------------------------|
|-0-0---0---0---0---0---0---0-----|---------------------------------|
|---------------------------------|-3-3---3---3---3---3---3---3-----|
|---------------------------------|---------------------------------|


  N.C.
  PM---------------------------------------------------------------------
  S S E E E E E E E E E E E E E E E   S S E E E E E E E E E E E E E E E
|-----------------------------------|-----------------------------------|
|-----------------------------------|-----------------------------------|
|-----------------------------------|-----------------------------------|
|-------4---2---4---5---4---2---2-4-|-------4---2---4---5---4---2---2-4-|
|-----------------------------------|-----------------------------------|
|-2-2-2---2---2---2---2---2---2-----|-0-0-0---0---0---0---0---0---0-----|
|
| S S E E E E E E E E E E E E E E E   S S E E E E E E E E E E E E E E E
|-----------------------------------|-----------------------------------|
|-------7---5---7---8---7---5---5-7-|-------7---5---7---8---7---5---5-7-|
|-----------------------------------|-----------------------------------|
|-4-4-4---4---4---4---4---4---4-----|-2-2-2---2---2---2---2---2---2-----|
|-----------------------------------|-----------------------------------|
|-----------------------------------|-----------------------------------|


 ---------------------------------|
  S S E E E E E E E E E E E E E E E
|------------------------------------|
|------------------------------------|
|------------------------------------|
|-0-0-0-4-0-2-0-4-0-5-0-4-0-2-0-2-4--|
|------------------------------------|
|------------------------------------|
|
| S S E E E E E E E E E E E E E E E
|------------------------------------|
|-------7---5---7---8---7---5---5-7--|
|------------------------------------|
|-0-0-0---0---0---0---0---0---0------|
|------------------------------------|
|------------------------------------|


 Guitar Solo - 2:55
  C5
 8/4
  PM----|       PM----|     PM----|     PM----|       PM----|       PM|
  S S S S E     S S S S E   S S S S E   S S S S E     S S S S E     S S
|-----------------------------------------------------------------------|
|-----------------------------------------------------------------------|
|-----------------------------------------------------------------------|
|-7-7-7-7-7b7.5-7-7-7-7-7b8-7-7-7-7-7b8-7-7-7-7-7b8.5-7-7-7-7-7b8.5-7-8-|
|-----------------------------------------------------------------------|
|-----------------------------------------------------------------------|
|
| Q       Q         Q       Q       Q       Q         Q       Q
|-----------------------------------------------------------------------|
|-----------------------------------------------------------------------|
|-5-------5-------------------------------------------------------------|
|-5-------5-------------------------------------------------------------|
|-3-------3-------------------------------------------------------------|
|-----------------------------------------------------------------------|


  C5
   ~~~~~~~~~~~~~~~~~~~~~~~
  +Q        +Q     +H          H        H
|------------------------------------------------|
|------------------------------------------------|
|------------------------------------------------|
|-(8)pb9.5r=(8)b9r=(8)b9r======9-----------------|
|----------------------------/10-----/(10)\------|
|-------------------------------------/10\-------|
|
|  Q         Q      Q     Q    Q  Q     Q    Q
|------------------------------------------------|
|------------------------------------------------|
|--5---------5-----------------------------------|
|--5---------5-----------------------------------|
|--3---------3-----------------------------------|
|------------------------------------------------|


  E5                                 E5                       D5
                 PM--|
  E E E E Q  E E E E E E S S E E E   E E E E E E E E E H      E  E E
|----------------------------------|-----------------3--------3----3--|
|----------------------------------|---------3p0-3S5-3-5------3--x-3--|
|--------------------0-2h3p2---0---|-0S2-2S4--------------------------|
|-----0---0--2---0h2---------2---2-|----------------------------------|
|-0h2---2------2-------------------|----------------------------------|
|----------------------------------|----------------------------------|
|
| Q   Q   Q  Q   Q   Q   Q     Q     Q   Q   Q   Q   Q   Q  E Q.
|----------------------------------|----------------------------------|
|----------------------------------|----------------------------------|
|----------------------------------|----------------------------------|
|-2---2----------------------------|-2---2--------------------7-------|
|-2---2----------------------------|-2---2--------------------5-------|
|-0---0----------------------------|-0---0----------------------------|


  C5
  +Q    Q    H           +E   e.    e.  e.  e.    e
|-(3)-------21b22.5r====(21)-19----18--17--------17-|
|-(3)--/3\---------------------------------20-------|
|------/5\------------------------------------------|
|---------------------------------------------------|
|---------------------------------------------------|
|---------------------------------------------------|
|
|  Q    Q    Q       Q    Q      Q      Q      Q
|---------------------------------------------------|
|---------------------------------------------------|
|--5----5-------------------------------------------|
|--5----5-------------------------------------------|
|--3----3-------------------------------------------|
|---------------------------------------------------|


  C5                                 G5/D
          ~~~~~~~              ~~
   E      H.             S  S  H       H
|-17pb19-17pb19r========17p16h17---------------|
|----------------------------------------------|
|----------------------------------------------|
|------------------------------------/17\------|
|------------------------------------/17\------|
|-------------------------------------15\------|
|
|  Q            Q  Q  Q        Q  Q    Q   Q
|----------------------------------------------|
|----------------------------------------------|
|--5------------5------------------------------|
|--5------------5------------------------------|
|--3------------3------------------------------|
|----------------------------------------------|


  E5
  S S H         +E  Q     E  Q.     E Q.
|--------------------------------------------|
|------------------------/8-\7------7--------|
|-9p7-7pb9r=====(7)--------------------------|
|-------------------8b9------7b8------6b7r===|
|--------------------------------------------|
|--------------------------------------------|
|
| Q        Q  Q     Q     Q      Q  Q     Q
|--------------------------------------------|
|--------------------------------------------|
|--------------------------------------------|
|-2--------2---------------------------------|
|-2--------2---------------------------------|
|-0--------0---------------------------------|


  E5                               D5
  Q  E S S E E E     S S E E E E E E  +Q
|------------------------------------------|
|------------------------------------------|
|------------------------------------------|
|----------5-7-7b8.5r7p5h7-------5---------|
|------5h7-------------------5-7---7--(7)--|
|--------------------------7---------------|
|
| Q  Q     Q   Q         Q   Q   E Q.
|------------------------------------------|
|------------------------------------------|
|------------------------------------------|
|-2--2-----------------------------7-------|
|-2--2-----------------------------5-------|
|-0--0-------------------------------------|


  C5                              C5
 8/4
  S S S S S S S S S S S S S S S S  S  S S S S S S S S S S S S S S S
|-------------------------------------------------------------------|
|-----------------5-3-------------------------------------------1-3-|
|-----------2-4-5-----5-4-2-4-2-0--2--0---------------------2-4-----|
|-----2-4-5-----------------------------4-2-4-5-4-2-0-2-4-5---------|
|-3-5---------------------------------------------------------------|
|-------------------------------------------------------------------|
|
| Q       Q       Q       Q        Q        Q       Q       Q
|-------------------------------------------------------------------|
|-------------------------------------------------------------------|
|-5-------5------------------------5--------5-----------------------|
|-5-------5------------------------5--------5-----------------------|
|-3-------3------------------------3--------3-----------------------|
|-------------------------------------------------------------------|
|
| Gtr III
| W                               +W
|-------------------------------------------------------------------|
|-5-------------------------------(5)-------------------------------|
|-------------------------------------------------------------------|
|-5-------------------------------(5)-------------------------------|
|-3-------------------------------(3)-------------------------------|
|-3-------------------------------(3)-------------------------------|


  C5                                C5
   S  S S S S S S S S S S S S S S S  S  S S S S S S S Q  Q
|------------------------------------------------------------|
|--5--3-------------------------------------------1-3-5------|
|-------5-4-2-4-2-0-2-0-----------------------2-4------------|
|-----------------------4-2-4-5-4-2--0--2-4-5----------------|
|------------------------------------------------------------|
|------------------------------------------------------------|
|
|  Q        Q       Q       Q        Q        Q       Q  Q
|------------------------------------------------------------|
|------------------------------------------------------------|
|--5--------5------------------------5--------5--------------|
|--5--------5------------------------5--------5--------------|
|--3--------3------------------------3--------3--------------|
|------------------------------------------------------------|
|
| +W                                +W
|------------------------------------------------------------|
|-(5)-------------------------------(5)----------------------|
|------------------------------------------------------------|
|-(5)-------------------------------(5)----------------------|
|-(3)-------------------------------(3)----------------------|
|-(3)-------------------------------(3)----------------------|


  C#5                             C#5
  S S S S S S S S S S S S S S S S  S  S S S S S S S S S S S S S S S
|-------------------------------------------------------------------|
|-----------------5-4-------------------------------------------2-4-|
|-----------3-4-6-----6-4-3-4-3----3------------------------3-4-----|
|-----2-4-6---------------------6-----6-4-2-4-6-4-2---2-4-6---------|
|-4-6-----------------------------------------------6---------------|
|-------------------------------------------------------------------|
|
| Q       Q       Q       Q        Q        Q       Q       Q
|-------------------------------------------------------------------|
|-------------------------------------------------------------------|
|-6-------6------------------------6--------6-----------------------|
|-6-------6------------------------6--------6-----------------------|
|-4-------4------------------------4--------4-----------------------|
|-------------------------------------------------------------------|
|
| W                               +W
|-------------------------------------------------------------------|
|-5-------------------------------(5)-------------------------------|
|-------------------------------------------------------------------|
|-6-------------------------------(6)-------------------------------|
|-4-------------------------------(4)-------------------------------|
|-4-------------------------------(4)-------------------------------|


  C#5                               C#5
   S  S S S S S S S S S S S S S S S  S  S S S S S S S Q  Q
|-------------------------------------------------------------|
|--5--4-------------------------------------------2-4-5-------|
|-------6-4-3-4-3---3-------------------------3-4-------------|
|-----------------6---6-4-2-4-6-4-2-----2-4-6-----------------|
|------------------------------------6------------------------|
|-------------------------------------------------------------|
|
|  Q        Q       Q       Q        Q        Q       Q  Q
|-------------------------------------------------------------|
|-------------------------------------------------------------|
|--6--------6------------------------6--------6---------------|
|--6--------6------------------------6--------6---------------|
|--4--------4------------------------4--------4---------------|
|-------------------------------------------------------------|
|
| +W                                +W
|-------------------------------------------------------------|
|-(5)-------------------------------(5)-----------------------|
|-------------------------------------------------------------|
|-(6)-------------------------------(6)-----------------------|
|-(4)-------------------------------(4)-----------------------|
|-(4)-------------------------------(4)-----------------------|


  C5                                              C5
   S  S  S  S  S  S  S  S  S  S  S  S  S  S  S  S  S   S  S  S  S  S  S  S  S  S  S  S  S  S  S  S
|--------------------------------------------------------------------------------------------------|
|-------------------------17-15--------------------------------------------------------------13-15-|
|----------------14-16-17-------17-16-14-16-14-12-14--12-------------------------------14-16-------|
|-------14-16-17-----------------------------------------16-14-16-17-16-14-12-14-16-17-------------|
|-15-17--------------------------------------------------------------------------------------------|
|--------------------------------------------------------------------------------------------------|
|
|  Q           Q           Q           Q           Q            Q           Q           Q
|--------------------------------------------------------------------------------------------------|
|--------------------------------------------------------------------------------------------------|
|--5-----------5-----------------------------------5------------5----------------------------------|
|--5-----------5-----------------------------------5------------5----------------------------------|
|--3-----------3-----------------------------------3------------3----------------------------------|
|--------------------------------------------------------------------------------------------------|
|
|  W                                              +W
|--------------------------------------------------------------------------------------------------|
|--8----------------------------------------------(8)----------------------------------------------|
|--------------------------------------------------------------------------------------------------|
|--5----------------------------------------------(5)----------------------------------------------|
|--3----------------------------------------------(3)----------------------------------------------|
|--3----------------------------------------------(3)----------------------------------------------|


  C5                                               C5
   S   S  S  S  S  S  S  S  S  S  S  S  S  S  S  S  S   S  S  S  S  S  S  S  S  E. Q
|---------------------------------------------------------------------------------------|
|-17--15--------------------------------------------------------------13-15-17-17-------|
|--------17-16-14-16-14-12-14-12--------------------------------14-16-------------------|
|--------------------------------16-14-16-17-16-14-12--14-16-17-------------------------|
|---------------------------------------------------------------------------------------|
|---------------------------------------------------------------------------------------|
|
|  Q            Q           Q           Q           Q            Q           Q     Q
|---------------------------------------------------------------------------------------|
|---------------------------------------------------------------------------------------|
|--5------------5-----------------------------------5------------5----------------------|
|--5------------5-----------------------------------5------------5----------------------|
|--3------------3-----------------------------------3------------3----------------------|
|---------------------------------------------------------------------------------------|
|
| +W                                               +W
|---------------------------------------------------------------------------------------|
|-(8)----------------------------------------------(8)----------------------------------|
|---------------------------------------------------------------------------------------|
|-(5)----------------------------------------------(5)----------------------------------|
|-(3)----------------------------------------------(3)----------------------------------|
|-(3)----------------------------------------------(3)----------------------------------|


  C#5                                             C#5
   S  S  S  S  S  S  S  S  S  S  S  S  S  S  S  S  S   S  S  S  S  S  S  S  S  S  S  S  S  S  S  S
|--------------------------------------------------------------------------------------------------|
|-------------------------17-16--------------------------------------------------------------14-16-|
|----------------15-16-18-------18-16-15-16-15----15-----------------------------------15-16-------|
|-------14-16-18-------------------------------18-----18-16-14-16-18-16-14----14-16-18-------------|
|-16-18--------------------------------------------------------------------18----------------------|
|--------------------------------------------------------------------------------------------------|
|
|  Q           Q           Q           Q           Q            Q           Q           Q
|--------------------------------------------------------------------------------------------------|
|--------------------------------------------------------------------------------------------------|
|--6-----------6-----------------------------------6------------6----------------------------------|
|--6-----------6-----------------------------------6------------6----------------------------------|
|--4-----------4-----------------------------------4------------4----------------------------------|
|--------------------------------------------------------------------------------------------------|
|
|  W                                              +W
|--------------------------------------------------------------------------------------------------|
|--5----------------------------------------------(5)----------------------------------------------|
|--------------------------------------------------------------------------------------------------|
|--6----------------------------------------------(6)----------------------------------------------|
|--4----------------------------------------------(4)----------------------------------------------|
|--4----------------------------------------------(4)----------------------------------------------|
|--2----------------------------------------------(2)----------------------------------------------|


  C#5                                              C#5
   S   S  S  S  S  S  S  S  S  S  S  S  S  S  S  S  S   S  S  S  S  S  S  S  S  E. Q
|---------------------------------------------------------------------------------------|
|-17--16--------------------------------------------------------------14-16-17-17-------|
|--------18-16-15-16-15----15-----------------------------------15-16-------------------|
|-----------------------18----18-16-14-16-18-16-14-----14-16-18-------------------------|
|--------------------------------------------------18-----------------------------------|
|---------------------------------------------------------------------------------------|
|
|  Q            Q           Q           Q           Q            Q           Q     Q
|---------------------------------------------------------------------------------------|
|---------------------------------------------------------------------------------------|
|--6------------6-----------------------------------6------------6----------------------|
|--6------------6-----------------------------------6------------6----------------------|
|--4------------4-----------------------------------4------------4----------------------|
|---------------------------------------------------------------------------------------|
|
| +W                                               +W
|---------------------------------------------------------------------------------------|
|-(5)----------------------------------------------(5)----------------------------------|
|---------------------------------------------------------------------------------------|
|-(6)----------------------------------------------(6)----------------------------------|
|-(4)----------------------------------------------(4)----------------------------------|
|-(4)----------------------------------------------(4)----------------------------------|
|-(2)----------------------------------------------(2)----------------------------------|


 Approaching Riff - 3:37
  N.C.
 8/4
  PM------------------------|       PM------------------------|
  E E E E E E E E E E E E E E E E   E E E E E E E E E E E E E E E E
|---------------------------------|----------------------------------|
|---------------------------------|----------------------------------|
|---------------------------------|---------------------7---6---7h9--|
|-----7---5---7---8---7---5---5h7-|-----7---5---7---8---7---7---7----|
|-0-0---0---0---0---0---0---0-----|-0-0---0---0---0---0---0---0------|
|---------------------------------|----------------------------------|
|
| E E E E E E E E E E E E E E E E   E E E E E E E E E E E E E E E E
|---------------------------------|----------------------------------|
|---------------------------------|----------------------------------|
|---------------------------------|---------------------7---6---7-9--|
|-----7---5---7---8---7---5---5-7-|-----7---5---7---8----------------|
|-0-0---0---0---0---0---0---0-----|-0-0---0---0---0---0---0---0------|
|---------------------------------|----------------------------------|


                                  N.C.
  PM--------------------|
  E E E E E E E E E E E E H        E  E  E  E  S  S  E  E  S  S  E  E  E  E  E  E  E  E
|-------------------------------|-------------------------------------------------------|
|-------------------------------|-------------------------------------------------------|
|-------------------------7-----|--------6--7--6--7--6-----6--7--6-----6--7--9--7--6----|
|-----7---5---7---8---7---5-----|--7--8-----------------8-----------8-----------------8-|
|-0-0---0---0---0---0---0-0-----|-------------------------------------------------------|
|-------------------------------|-------------------------------------------------------|
|
| E E E E E E E E E E E E Q  Q     E  E  E  E  S  S  E  E  S  S  E  E  E  E  E  E  E  E
|-------------------------------|-------------------------------------------------------|
|-------------------------------|-------14-15-14-15-14----14-15-14----14-15-17-15-14----|
|-------------------------7--7--|-14-15----------------15----------15----------------15-|
|-----7---5---7---8---7---5--5--|-------------------------------------------------------|
|-0-0---0---0---0---0---0-------|-------------------------------------------------------|
|-------------------------------|-------------------------------------------------------|


                                            Q=150
                                             |--3--|
   E  S  S  E  E  E  E  E  E  E  S  S  E  E  q  q  q
|-----------------------------------------------------|
|-----------------------------------------------------|
|-----------------------------------------------------|
|--7--6--7--6-----6-----------------------------------|
|--------------8-----8--7--5--4--4--5--4-----4--------|
|-----------------------------------------6-----6--5--|
|
|                                            |--3--|
|  E  S  S  E  E  E  E  E  E  E  S  S  E  E  Q  Q  Q
|-----------------------------------------------------|
|-----------------------------------------------------|
|-14-13-14-13----13-----------------------------------|
|-------------15----15-14-12-11-11-12-11----11--------|
|----------------------------------------13----13-12--|
|-----------------------------------------------------|


  G5/D          Eb5                 G5/D
 7/8           4/4
  H      Q.      W           +H      H
|-------------|-----------|----------------|
|-------------|-----------|----------------|
|-------------|-----------|----------------|
|-------------|-----------|----------------|
|-5\----------|--6--------|--(6)----10\----|
|-3\----------|--6--------|--(6)----10\----|
|
| H     +Q.      W           +W
|-------------|-----------|----------------|
|-8-----(8)---|-10--------|-(10)-----------|
|-7-----(7)---|--8--------|--(8)-----------|
|-5-----(5)---|--8--------|--(8)-----------|
|-5-----(5)---|--6--------|--(6)-----------|
|-3-----------|--6--------|--(6)-----------|


 Bass Groove - 3:55
  Q=165
  D5
 8/4
    W         +W            +W          W
|------------------------|---------------------|
|------------------------|---------------------|
|------------------------|---------------------|
|-/12--------(12)--------|-(12)S=======(7)S====|
|-/12--------(12)--------|-(12)S=======(7)S====|
|-/10--------(10)--------|-(10)S=======(5)S====|


  E5
   E  E Q  Q  Q  Q  Q  Q  Q    W        W
|----------------------------|---------------|
|----------------------------|---------------|
|----------------------------|---------------|
|-(2)------------------------|---------------|
|-(2)------------------------|---------------|
|-(0)------------------------|---------------|


  H.      W        Q    +H.      W        +Q
|---------------------|----------5--------(5)--|
|-7-------------------|------------------------|
|------------------7--|-(7)--------------------|
|---------7-----------|------------------------|
|---------------------|------------------------|
|---------------------|------------------------|


  Eadd11
   W         +W           +W         +W
|-(5)--------(5)--------|-(5)--------(5)----|
|--9---------(9)--------|-(9)--------(9)----|
|--9---------(9)--------|-(9)--------(9)----|
|--2---------(2)--------|-(2)--------(2)----|
|-----------------------|-------------------|
|-----------------------|-------------------|


 Verse 3 - 4:16
  H.      W        Q    +H.      W        +Q
|---------------------|----------5--------(5)--|
|-7-------------------|------------------------|
|------------------7--|-(7)--------------------|
|---------7-----------|------------------------|
|---------------------|------------------------|
|---------------------|------------------------|


  E                                             F5
  W         W            Q   Q  Q  Q   Q   Q  E  E  E  E
|---------------------|----------------------------------|
|---------------------|----------------------------------|
|---------------------|----------------------------------|
|---------------------|----------------------------------|
|---------------------|--------------------------8--8--8-|
|---------------------|----------------------------------|
|
| Gtr III
| W        +W           +W            +H      E  E  E  E
|-7--------(7)--------|-(7)-----------(7)-------13-13-13-|
|-9--------(9)--------|-(9)-----------(9)-------13-13-13-|
|-9--------(9)--------|-(9)-----------(9)-------10-10-10-|
|-2--------(2)--------|-(2)-----------(2)----------------|
|---------------------|----------------------------------|
|---------------------|----------------------------------|


  D5/A
  E E E q  E E E  q   E E E Q  +E     E  E E q  E E E  q   E E E Q  +E
|----------------------------------|------------------------------------|
|----------------------------------|------------------------------------|
|----------------------------------|------------------------------------|
|-7-7-7-7--7-7-7--7---7-7-7-7--(7)-|--7--7-7-7--7-7-7--7---7-7-7-7--(7)-|
|-5-5-5-5--5-5-5--5---5-5-5-5--(5)-|--5--5-5-5--5-5-5--5---5-5-5-5--(5)-|
|-5-5-5-5--5-5-5--5---5-5-5-5--(5)-|--5--5-5-5--5-5-5--5---5-5-5-5--(5)-|
|
| W              +W                  +W               +W
|----------------------------------|------------------------------------|
|----------------------------------|------------------------------------|
|-7--------------(7)---------------|-(7)--------------(7)---------------|
|-7--------------(7)---------------|-(7)--------------(7)---------------|
|-5--------------(5)---------------|-(5)--------------(5)---------------|
|-5--------------(5)---------------|-(5)--------------(5)---------------|


  E/Ab                                                           F/A
  E E E q  E E E  q   E E E Q  +E     E  E E q  E E E q  E E  E  Q   +E
|----------------------------------|-------------------------------------|
|----------------------------------|-------------------------------------|
|----------------------------------|-------------------------------------|
|-6-6-6-6--6-6-6--6---6-6-6-6--(6)-|--6--6-6-6--6-6-6-6--6-6--6--7---(7)-|
|-7-7-7-7--7-7-7--7---7-7-7-7--(7)-|--7--7-7-7--7-7-7-7--7-7--7--8---(8)-|
|-4-4-4-4--4-4-4--4---4-4-4-4--(4)-|--4--4-4-4--4-4-4-4--4-4--4--5---(5)-|
|
| W              +W                  +W.                     +E  Q.
|----------------------------------|-----------------------------5-------|
|----------------------------------|-----------------------------6-------|
|-4--------------(4)---------------|-(4)---------------------(4)-5-------|
|-6--------------(6)---------------|-(6)---------------------(6)-7-------|
|-7--------------(7)---------------|-(7)---------------------(7)-8-------|
|-0--------------(0)---------------|-(0)---------------------(0)-1-------|


 Bridge 1 - 4:36
  D5        C#5      C5        B5      D5        C#5      C5        B5
 9/4
  E E E q   E E E q  E E E q   E E E   E E E q   E E E q  E E E q   E E E
|------------------------------------|------------------------------------|
|------------------------------------|------------------------------------|
|-7-7-7-7---6-6-6-6--5-5-5-5---4-4-4-|-7-7-7-7---6-6-6-6--5-5-5-5---4-4-4-|
|-7-7-7-7---6-6-6-6--5-5-5-5---4-4-4-|-7-7-7-7---6-6-6-6--5-5-5-5---4-4-4-|
|-5-5-5-5---4-4-4-4--3-3-3-3---2-2-2-|-5-5-5-5---4-4-4-4--3-3-3-3---2-2-2-|
|------------------------------------|------------------------------------|
|
| Q   Q   Q   Q   Q  Q   Q   Q   Q     Q   Q   Q   Q   Q  Q   Q   Q   Q
|------------------------------------|------------------------------------|
|------------------------------------|------------------------------------|
|------------------------------------|------------------------------------|
|------------------------------------|------------------------------------|
|------------------------------------|------------------------------------|
|------------------------------------|------------------------------------|


  D5       C#5     C5      B5        D5       C#5     C5      B5
 8/4                                10/4
  E E  E E E E E E E E E E E E E E   E E  E E E E E E E E E E E E E E E E Q
|----------------------------
Добавлено: 09.06.2012
Другие материалы по этой песне:

Страница создана 05.04.2012
http://primanota.ru/pagans-mind/through-osiris-eyes-chords.htm
Привет, Гость.
Предлагаем пройти революционный курс по гитаре.
Подарок от PrimaNota.Ru, забирай!