PrimaNota.ru - самый крупный в мире бесплатный архив песенных текстов, аккордов, табулатур и нот


Pagan Altar - Highway Cavalier - таба, видео

Регистрация Запомнить меня
Войти через:  Facebook Google Twitter Vk Yandex Mail.ru

Pagan Altar - Highway Cavalier - таба, видео

Печатать
Просмотров: 120
Уроки эстрадного вокала в Санкт-Петербурге
-------------------------------------------------------------------------------
                          HIGHWAY CAVALIER - Pagan Altar
-------------------------------------------------------------------------------
Tabbed by: Golgathor

Tuning: E A D G B e


INTRO
e|---------------------------------------------|
B|---------------------------------------------|
G|-----------------4/5-------------------------|
D|------7----5--5--2/3--------7----5-3-2-5-----|
A|-5----5----3--3--------5----5----3-----3-----|
E|-3---------------------3---------------------|

e|---------------------------------------------------------|
B|---------------------------------------------------------|
G|-----------------4/5-------------------------------------|
D|------7----5--5--2/3--------7----5-3-2-5-----------------|
A|-5----5----3--3--------5----5----3-----3------3-2-5------|
E|-3---------------------3--------------------------3------|


MAIN RIFF (Solo I)
e||--------------------------------||
B||--------------------------------||
G||--------------------------------||
D||--------------------------------||
A||--------------------------------||
E||-3-2-0--0-0-0-0-0-0-0-0-0-0-0-0-|| 2x


VERSE 1
e||--------------------------------||
B||--------------------------------||
G||--------------------------------||
D||--------------------------------||
A||--------------------------------||
E||-3-2-0--0-0-0-0-0-0-0-0-0-0-0-0-|| 4x
  I ride the highway of life
  But I'm living carefree
  I'm going down life's backstreets
  Being what I wanna be

e|-------------------------------|
B|-------------------------------|
G|-------------------------------|
D|-------------------------------|
A|-4--5--------------------------|
E|-2--3--3-3-3-3-3-3-3-3-3-3-3-3-|
  And I'm meeting people

e|--------------------------------|
B|--------------------------------|
G|--------------------------------|
D|--------------------------------|
A|--------------------------------|
E|-3-2-0--0-0-0-0-0-0-0-0-0-0-0-0-|
  People like me

e|-------------------------------|
B|-------------------------------|
G|-------------------------------|
D|-4---5--------5-5-5-7----------|
A|-2---3--3-3-3-3-3-3-5--5-5-5-5-|
E|---0---------------------------|
  Everyone who feels the need to be free


MAIN RIFF (Solo II)


VERSE 2
(Play Verse 1 Riff)
  Well no authority can check me
  On my crash course to Hell
  Nobody needs to save me
  Don't wanna hear that bell
  I'm living free and easy
  That's how it's gonna be
  Oh free, free, free to be me


VERSE RIFF (Solo III)


MAIN RIFF


VERSE 3
(Play Verse 1 Riff)
  I am moving so fast
  You'll never catch me
  I'm just a blur before your eyes
  Sailing on the breeze
  I'm living free and easy
  That's how it's gonna be
  Oh free, free, free to be me


VERSE RIFF (Solo IV)


OUTRO
e|---------------------------|
B|---------------------------|
G|---------------------------|
D|---------------------------|
A|-----2---------------------|
E|-3-2-0---------------------|
Добавлено: 15.06.2016
Вам также может быть интересно:
Другие материалы по этой песне:
  • Аккорды и текст

Страница создана 15.06.2016
http://primanota.ru/pagan-altar/highway-cavalier-chords.htm
Привет, Гость.
Предлагаем пройти революционный курс по гитаре.
Подарок от PrimaNota.Ru, забирай!